Oops, an error
Loading. Please wait.
We have Chord Pro version of Melissa.
It's the closest thing you can get to the original song and it has interactive parts. Check out the tab »
×
136,015 views 87 this week
10 commentsread comments
1 2 3 4 5
x 32
add to favorites
launch autoscroll
font size
0
reset
how to read this tab
guitar tuner
Autoscroll
slow
fast
+/-
esc
set tempo
stop
Author
----------------------------------------------------------------------------
                     Melissa - The Allman Brothers band
----------------------------------------------------------------------------
Tabbed by: GAC1989
Email: George_C_89@hotmail.com

Tuning: Standard

 [Intro]
e|-16-14-12--12-------------------------|-----|
B|--------------14p12-------------------|-----|
G|--------------------13\11--9--11p9----|--9--|
D|-----------------------------------11-|-----|
A|--------------------------------------|-----|
E|--------------------------------------|-----|

 [Verse 1]
e|------------------|-----------|-----|
B|-----------9-10p9-|---12~~-14-|-12~-|
G|------9-11--------|-----------|-----|
D|-9h11-------------|-----------|-----|
A|------------------|-----------|-----|
E|------------------|-----------|-----|
                         
                          [Pre-Chorus 1]
e|------------------------|-----------|-9~~-10--14-|
B|------------------------|-10~~-12~~-|------------|
G|------9--9h11p9---9--11-|-----------|------------|
D|-9h11-------------------|-----------|------------|
A|------------------------|-----------|------------|
E|------------------------|-----------|------------|

e|--12~~-14~~-|-16b--17-16-14-12-14b-|-15~~-15p14p12-|-14~~-|
B|------------|----------------------|---------------|------|
G|------------|----------------------|---------------|------|
D|------------|----------------------|---------------|------|
A|------------|----------------------|---------------|------|
E|------------|----------------------|---------------|------|
 
 [Chorus 1]                                  [Verse 2]
e|----14-16~~-|---------|-12-----------------|------|
B|-12---------|---------|----14p12-12--------|------|
G|------------|---------|-------------13\11--|--9~~-|
D|------------|---------|--------------------|------|
A|------------|---------|--------------------|------|
E|------------|---------|--------------------|------|

e|-------------------|------------------------|---------------------|
B|-------------------|------------------------|------------------9h-|
G|--------------9h11-|-11/13-13\11-11-9-9h11--|--9~~-11-----9h11----|
D|---------9h11------|------------------------|---------9-11--------|
A|----9h11-----------|------------------------|---------------------|
E|-12----------------|------------------------|---------------------|

 [Pre-Chorus 2]
e|--------------|-9~~-10p9-10-14~~-|-12~-14~-|-16b--16-14\12--12h14-|-15~-|
B|-10~~-10-12~~-|------------------|---------|----------------------|-----|
G|--------------|------------------|---------|----------------------|-----|
D|--------------|------------------|---------|----------------------|-----|
A|--------------|------------------|---------|----------------------|-----|
E|--------------|------------------|---------|----------------------|-----|
         
               [Chorus 2]
e|-14b-12h14~~-|-----14-16~~-|--12------------------------------|
B|-------------|--12---------|-----14p12-12---------------------|
G|-------------|-------------|--------------13\11-9-------------|
D|-------------|-------------|----------------------11p9-9------|
A|-------------|-------------|-----------------------------11\9-|
E|-------------|-------------|----------------------------------|

 [Bridge]
e|----------|------------|------------|------9h10p9-|-12~-14-|-12b-12~-|
B|----------|------14-12-|-10~~-10h12-|-12~~--------|--------|---------|
G|-9~~-9h11-|-11~~-------|------------|-------------|--------|---------|
D|----------|------------|------------|-------------|--------|---------|
A|----------|------------|------------|-------------|--------|---------|
E|----------|------------|------------|-------------|--------|---------|

                                    [Verse 3]
e|-----------|----------------------|----|------------------|-9-----|
B|-12-10-12~-|--9h10-10p9-9---------|----|-------------9-10-|---12~-|
G|-----------|--------------11-11p9-|-9~-|--------9-11------|-------|
D|-----------|----------------------|----|---9-11-----------|-------|
A|-----------|----------------------|----|------------------|-------|
E|-----------|----------------------|----|------------------|-------|
                           
                              [Pre-Chorus 3]
e|-----------|----|-----------|---------|-9~~-10p9-10-12-|-12~~-14~~-|
B|-9h10p9----|----|-----------|-10~~-12~|~---------------|-----------|
G|---------11|-p9-|---------9-|---------|----------------|-----------|
D|-----------|----|----9-11---|---------|----------------|-----------|
A|-----------|----|-----------|---------|----------------|-----------|
E|-----------|----|-----------|---------|----------------|-----------|

                                          [Chorus 3]
e|-16b--17-16-14p12-|-15~~-15-14p12-h14~~-|----14-16~~-|
B|------------------|---------------------|-12---------|
G|------------------|---------------------|------------|
D|------------------|---------------------|------------|
A|------------------|---------------------|------------|
E|------------------|---------------------|------------|

e|-----------|-----------------|-----------------------------|
B|-----------|-----------------|----------9--9---10p9h10-14~-|
G|---11--13~~|---------------9-|-11p9h11---11----------------|
D|-9---------|----------9-11---|-----------------------------|
A|-----------|---7-9-7---------|-----------------------------|
E|-----------|-----------------|-----------------------------|
               [- 3 -] [- 3 -]   [- 3 -] [- 3 -] [- 3 -]

 [Outro]
e|-----------|-12h14p12h14p12h14p12h14p12h14p12h14p12-|-14B-16-16~-|
B|-14-12--12~|----------------------------------------|------------|
G|-----------|----------------------------------------|------------|
D|-----------|----------------------------------------|------------|
A|-----------|----------------------------------------|------------|
E|-----------|----------------------------------------|------------|

e|-14-12-|--16-14p12-14~--12-|-16-14p12-12----------------------------|
B|-------|-------------------|------------14p12--12h14p12-------------|
G|-------|-------------------|---------------------------13\11p9h11p9-|
D|-------|-------------------|----------------------------------------|
A|-------|-------------------|----------------------------------------|
E|-------|-------------------|----------------------------------------|

e|----------------------------------|----------|-------------|
B|----------------------------------|----------|-10p9h10p9~~-|
G|---9------------------------------|-9~~-9h11-|-------------|
D|-9---11\9------------------9-9h11-|----------|-------------|
A|----------11p9h11p9p7/9/11--------|----------|-------------|
E|----------------------------------|----------|-------------|

e|---------------|-------------------|-14B-16~-|-17-16p14/12----|-----|
B|-10p9h10--12~~-|-14p12h14p12~~--12-|---------|-------------14-|-p12-|
G|---------------|-------------------|---------|----------------|-----|
D|---------------|-------------------|---------|----------------|-----|
A|---------------|-------------------|---------|----------------|-----|
E|---------------|-------------------|---------|----------------|-----|

e|-----------------|-------------------|------------------|
B|-----------------|-------------------|------------------|
G|-13\11\9---------|-------------------|-----9~--11-9~-11-|
D|---------11-9----|-----9------9----9-|-9h11-------------|
A|--------------11-|-9\7----9/11---7---|------------------|
E|-----------------|-------------------|------------------|

e|---------------|
B|---------------|
G|-9--9------9~~-|
D|--------11-----|
A|---------------|
E|---------------|

************************************

| h  Hammer-on
| p  Pull-off
| b  Bend
| /  Slide up
| \  Slide down
| ~  Vibrato

************************************
Suggest correction
comments
print report bad tab
10 comments total. Showing first comments.
0 reply
cord 10 Jan 24, 2006 02:30 PM

Right notes, but the song is full of bends, especially prebends, like in the first lick.

0 reply
182bitterstarts 30 Mar 22, 2006 05:31 PM

good job!! but like cord said there's bends everywheres but we should be able to figure those out....thanks alot

0 reply
Matt Montoya 2,122 Apr 06, 2006 05:48 PM

Very good tab, but chords would have been nice too.

guest
You may want to rate the tab now too:
select rating
Wanna post a correction for this tab? Suggest correction