Oops, an error
Loading. Please wait.

Midnight Rider Tab

version 1
version 1

Whole song

Interactive

55,836 views 30 this week
6 commentsread comments
1 2 3 4 5
worth learning
x 27
add to favorites
launch autoscroll
font size
0
reset
how to read this tab
guitar tuner
Autoscroll
slow
fast
+/-
esc
set tempo
stop
Help us to improve Ultimate-Guitar.com Take our survey!
×
Author
Difficulty
novice
              midnight rider

      H
e|---------------------------------------------------------------------------|
B|-------3-3-----3-----------------------------------------------------------|
G|-------2-2-----2-----------------------------------------------------------|
D|-------0-0-----0-----------------------------------------------------------|
A|--0-3-------3--------------------------------------------------------------|
E|---------------------------------------------------------------------------|


 H = hammer on

  their u go midnight rider! just keep repeating that throug the whole song.
  i think it is really easy, so u will probably get it real fast 2. ok g2g
Suggest correction
comments
print report bad tab
6 comments total. Showing first comments.
-1 reply
Peterjs 81 wrote on April 1 2006, 01:34 pm

It's not accurate

+1 reply
metal_swayne 10 wrote on August 25 2008, 10:11 pm

missing way too much of the song

-1 reply
AdamPowell 10 wrote on December 5 2008, 08:16 am

its a good song and simple but thats not it

D|-------0-0-----0--------
A|--0h3--------3----------

then you strum me sounds like 2 chords but cant think wich ones

guest
You may want to rate the tab now too:
select rating
Please do not post tabs as comments. Select "correction" instead!