Oops, an error
Loading. Please wait.

One Way Out tab

version 4
version 4

Whole song

Interactive

6,118 views 27 this week
no commentswrite comment
1 2 3 4 5
3 more votes to show rating
add to favorites
×
Save as Personal and add changes to this tab that will be seen only by you. Learn more ›
×
You can save this tab as Personal to edit and correct it or add notes. All changes will be seen only by you. Learn more »
launch autoscroll
font size
0
reset
how to read this tab
guitar tuner
backing track
0:00
0:00
edit
Autoscroll
slow
fast
+/-
esc
set tempo
stop
Guitar 1--Standard (EADGBE) - Dickey Betts
Guitar 2--Open E (EBEG#BE) - Duane Allman (w/slide)

Intro:
e |-----------------------------------------------|
B |-----------------------------------------------|
G |-----------------------------------------------|
D |----7-7p5---7-5---5-5-7---7-7p5---7-5---5-5----|
A |----------7-----7---------------7-----7-----7--|
E |--5---------------------5----------------------|
|                                                 |
e |-----------------------------------------------|
B |-----------------------------------------------|
G#|-----------------------------------------------|
E |-----------------------------------------------|
B |-----------------------------------------------|
E |-----------------------------------------------|

e |-----------------------------------------------|
B |-----------------------------------------------|
G |-----------------------------------------------|
D |----7-7p5---7-5---5-5-7---7-7p5---7-5---5-5----|
A |----------7-----7---------------7-----7-----7--|
E |--5---------------------5----------------------|
|                                                 |
e |-----------------------------------------------|
B |-----------------------------------------------|
G#|-----------------------------------------------|
E |-----------------------------------------------|
B |-----------------------------------------------|
E |-----------------------------------------------|

e |-----------------------------------------------|
B |-----------------------------------------------|
G |-----------------------------------------------|
D |----7-7p5---7-5---5-5-7---7-7p5---7-5---5-5----|
A |----------7-----7---------------7-----7-----7--|
E |--5---------------------5----------------------|
|                                                 |
e |-----------------------------------------------|
B |-----------------------------------------------|
G#|-----------------------------------------------|
E |-----------------------------------------------|
B |-----------------------------------------------|
E |-----------------------------------------------|

e |-----------------------------------------------|
B |-----------------------------------------------|
G |-----------------------------------------------|
D |----7-7p5---7-5---5-5-7---7-7p5---7-5---5-5----|
A |----------7-----7---------------7-----7-----7--|
E |--5---------------------5----------------------|
|                                                 |
e |-----------------------------------------------|
B |-----------------------------------------------|
G#|-----------------------------------------------|
E |-----------------------------------------------|
B |-----------------------------------------------|
E |-----------------------------------------------|

e |-----------------------------------------------|
B |-----------------------------------------------|
G |-----------------------------------------------|
D |----7-7p5---7-5---5-5-7---7-7p5---7-5---5-5----|
A |----------7-----7---------------7-----7-----7--|
E |--5---------------------5----------------------|
|                                                 |
e |-----------------------------------------------|
B |-----------------------------------------------|
G#|-----------------------------------------------|
E |-----------------------------------------------|
B |-----------------------------------------------|
E |-----------------------------------------------|

e |-----------------------------------------------|
B |-----------------------------------------------|
G |-----------------------------------------------|
D |----7-7p5---7-5---5-5-7---7-7p5---7-5---5-5----|
A |----------7-----7---------------7-----7-----7--|
E |--5---------------------5----------------------|
|                                                 |
e |-----------------------------------------------|
B |-----------------------------------------------|
G#|-----------------------------------------------|
E |-----------------------------------------------|
B |-----------------------------------------------|
E |-----------------------------------------------|

e |-----------------------------------------------|
B |-----------------------------------------------|
G |-----------------------------------------------|
D |----7-7p5---7-5---5-5-7---7-7p5---7-5---5-5----|
A |----------7-----7---------------7-----7-----7--|
E |--5---------------------5----------------------|
|                                                 |
e |-----------------------------------------------|
B |-----------------------------------------------|
G#|-----------------------------------------------|
E |-----------------------------------------------|
B |-----------------------------------------------|
E |-----------------------------------------------|

e |-----------------------------------------------|
B |-----------------------------------------------|
G |-----------------------------------------------|
D |----7-7p5---7-5---5-5-7---7-7p5---7-5---5-5----|
A |----------7-----7---------------7-----7-----7--|
E |--5---------------------5----------------------|
|                                                 |
e |-----------------------------------------------|
B |-----------------------------------------------|
G#|-----------------------------------------------|
E |-----------------------------------------------|
B |-----------------------------------------------|
E |-----------------------------------------------|

Main Progression:
e |-----------------------------------------------|
B |-----------------------------------------------|
G |-----------------------------------------------|
D |----7-7p5---7-5---5-5-7---7-7p5---7-5---5-5----|
A |----------7-----7---------------7-----7-----7--|
E |--5---------------------5----------------------|
|                                                 |
e |-----------------------------------------------|
B |/10-10\8--/10-8---8/10---10-10\8--/10----------|
G#|--------8-------8----------------8-------------|
E |-----------------------------------------------|
B |-----------------------------------------------|
E |-----------------------------------------------|

e |-----------------------------------------------|
B |-----------------------------------------------|
G |-----------------------------------------------|
D |----7-7p5---7-5---5-5-7---7-7p5---7-5---5-5----|
A |----------7-----7---------------7-----7-----7--|
E |--5---------------------5----------------------|
|                                                 |
e |-----------------------------------------------|
B |/10-10\8--/10-8---8/10---10-10\8--/10----------|
G#|--------8-------8----------------8-------------|
E |-----------------------------------------------|
B |-----------------------------------------------|
E |-----------------------------------------------|

e |-----------------------------------------------|
B |-----------------------------------------------|
G |----7-7p5---7-5---5-5-7---7-7p5---7-5---5-5----|
D |----------7-----7---------------7-----7-----7--|
A |--5---------------------5----------------------|
E |-----------------------------------------------|
|                                                 |
e |-----------------------------------------------|
B |/10-10\8--/10-8---8/10---10-10\8--/10----------|
G#|--------8-------8----------------8-------------|
E |-----------------------------------------------|
B |-----------------------------------------------|
E |-----------------------------------------------|

e |-----------------------------------------------|
B |-----------------------------------------------|
G |-----------------------------------------------|
D |----7-7p5---7-5---5-5-7---7-7p5---7-5---5-5----|
A |----------7-----7---------------7-----7-----7--|
E |--5---------------------5----------------------|
|                                                 |
e |-----------------------------------------------|
B |/10-10\8--/10-8---8/10---10-10\8--/10----------|
G#|--------8-------8----------------8-------------|
E |-----------------------------------------------|
B |-----------------------------------------------|
E |-----------------------------------------------|

e |-----------------------------------------------|
B |-----------------------------------------------|
G |----9-9p7---9-7---7-7-9---7-7p5---7-5---5-5----|
D |----------9-----9---------------7-----7-----7--|
A |--7---------------------5----------------------|
E |-----------------------------------------------|
|                                                 |
e |-----------------------------------------------|
B |/10-10\8--/10-8---8/10---10-10\8--/10----------|
G#|--------8-------8----------------8-----6\------|
E |-----------------------------------------------|
B |-----------------------------------------------|
E |-----------------------------------------------|

e |-----------------------------------------------|
B |-----------------------------------------------|
G |-----------------------------------------------|
D |----7-7p5---7-5---5-5-7---7-7p5---7-5---5-5----|
A |----------7-----7---------------7-----7-----7--|
E |--5---------------------5----------------------|
|                                                 |
e |-----------------------------------------------|
B |/10-10\8--/10-8---8/10---10-10\8--/10----------|
G#|--------8-------8----------------8-------------|
E |-----------------------------------------------|
B |-----------------------------------------------|
E |-----------------------------------------------|

1st Verse:
"Ain't but one way out baby, Lord I just can't go out that door"
e |-----------------------------------------------|
B |-----------------------------------------------|
G |-----------------------------------------------|
D |----7-7p5---7-5---5-5-7---7-7p5---7-5---5-5----|
A |----------7-----7---------------7-----7-----7--|
E |--5---------------------5----------------------|
|                                                 |
e |/5---------------------------------------------|
B |/5--10\8--/10-8---8/10---10-10\8--/10----------|
G#|--------8-------8----------------8-------------|
E |-----------------------------------------------|
B |-----------------------------------------------|
E |-----------------------------------------------|

e |-----------------------------------------------|
B |-----------------------------------------------|
G |-----------------------------------------------|
D |----7-7p5---7-5---5-5-7---7-7p5---7-5---5-5----|
A |----------7-----7---------------7-----7-----7--|
E |--5---------------------5----------------------|
|                                                 |
e |---------------------------------------10\8----|
B |/10-10\8--/10-8---8/10---10-10\8--/10------/10-|
G#|--------8-------8----------------8-------------|
E |-----------------------------------------------|
B |-----------------------------------------------|
E |-----------------------------------------------|

"Ain't but one way out baby, Lord I just can't go out that door."
e |-----------------------------------------------|
B |-----------------------------------------------|
G |----7-7p5---7-5---5-5-7---7-7p5---7-5---5-5----|
D |----------7-----7---------------7-----7-----7--|
A |--5---------------------5----------------------|
E |-----------------------------------------------|
|                                                 |
e |-----------------------------------------------|
B |/10-10\8--/10-8---8/10---10-10\8--/10----------|
G#|--------8-------8----------------8-------------|
E |-----------------------------------------------|
B |-----------------------------------------------|
E |-----------------------------------------------|

e |-----------------------------------------------|
B |-----------------------------------------------|
G |-----------------------------------------------|
D |----7-7p5---7-5---5-5-7---7-7p5---7-5---5-5----|
A |----------7-----7---------------7-----7-----7--|
E |--5---------------------5----------------------|
|                                                 |
e |-----------------------------------------------|
B |/10-10\8--/10-8---8/10---10-10\8--/10----------|
G#|--------8-------8----------------8-------------|
E |-----------------------------------------------|
B |-----------------------------------------------|
E |-----------------------------------------------|

"Cause there's a man down there--might be your man, I don't know."
e |--------------------------|
B |--------------------------|
G |----9-9p7---9-7---7-7-9-7-|
D |----------9-----9-------7-|
A |--7-----------------------|
E |--------------------------|
|                            |
e |--------------------------|
B |/10-10\8--/10-8---8/10-/10|
G#|--------8-------8---------|
E |--------------------------|
B |--------------------------|
E |--------------------------|

e |-----------------------------------------------|
B |-----------------------------------------------|
G |-----------------------------------------------|
D |----7-7p5---7-5---5-5-7---7-7p5---7-5---5-5----|
A |----------7-----7---------------7-----7-----7--|
E |--5---------------------5----------------------|
|                                                 |
e |/5---------------------------------------------|
B |/5--10\8--/10-8---8/10---10-10\8--/10----------|
G#|--------8-------8----------------8-------------|
E |-----------------------------------------------|
B |-----------------------------------------------|
E |-----------------------------------------------|

2nd Verse:
"Lord, you got me trapped here woman, up on the seventh floor,"
e |-----------------------------------------------|
B |-----------------------------------------------|
G |-----------------------------------------------|
D |----7-7p5---7-5---5-5-7---7-7p5---7-5---5-5----|
A |----------7-----7---------------7-----7-----7--|
E |--5---------------------5----------------------|
|                                                 |
e |/5---------------------------------------------|
B |/5--10\8--/10-8---8/10---10-10\8--/10----------|
G#|--------8-------8----------------8-------------|
E |-----------------------------------------------|
B |-----------------------------------------------|
E |-----------------------------------------------|
"I get by this time I won't be trapped no more."
e |-----------------------------------------------|
B |-----------------------------------------------|
G |-----------------------------------------------|
D |----7-7p5---7-5---5-5-7---7-7p5---7-5---5-5----|
A |----------7-----7---------------7-----7-----7--|
E |--5---------------------5----------------------|
|                                                 |
e |---------------------------------------10\8----|
B |/10-10\8--/10-8---8/10---10-10\8--/10------/10-|
G#|--------8-------8----------------8-------------|
E |-----------------------------------------------|
B |-----------------------------------------------|
E |-----------------------------------------------|

"Raise your window baby, I can ease out soft and slow."
e |-----------------------------------------------|
B |-----------------------------------------------|
G |----7-7p5---7-5---5-5-7---7-7p5---7-5---5-5----|
D |----------7-----7---------------7-----7-----7--|
A |--5---------------------5----------------------|
E |-----------------------------------------------|
|                                                 |
e |-----------------------------------------------|
B |/10-10\8--/10-8---8/10---10-10\8--/10----------|
G#|--------8-------8----------------8-------------|
E |-----------------------------------------------|
B |-----------------------------------------------|
E |-----------------------------------------------|

e |-----------------------------------------------|
B |-----------------------------------------------|
G |-----------------------------------------------|
D |----7-7p5---7-5---5-5-7---7-7p5---7-5---5-5----|
A |----------7-----7---------------7-----7-----7--|
E |--5---------------------5----------------------|
|                                                 |
e |-----------------------------------------------|
B |/10-10\8--/10-8---8/10---10-10\8--/10----------|
G#|--------8-------8----------------8-------------|
E |-----------------------------------------------|
B |-----------------------------------------------|
E |-----------------------------------------------|

"Lord your neighbors, no they won't be talking 'bout stuff they don't know."
e |--------------------------|
B |--------------------------|
G |----9-9p7---9-7---7-7-9-7-|
D |----------9-----9-------7-|
A |--7-----------------------|
E |--------------------------|
|                            |
e |--------------------------|
B |/8-/8--/8-/8---/8-/10--/10|
G#|-------------8------------|
E |--------------------------|
B |--------------------------|
E |--------------------------|

e |-----------------------------------------------|
B |-----------------------------------------------|
G |-----------------------------------------------|
D |----7-7p5---7-5---5-5-7---7-7p5---7-5---5-5----|
A |----------7-----7---------------7-----7-----7--|
E |--5---------------------5----------------------|
|                                                 |
e |/5---------------------------------------------|
B |/5--10\8--/10-8---8/10---10-10\8--/10----------|
G#|--------8-------8----------------8-------------|
E |-----------------------------------------------|
B |-----------------------------------------------|
E |-----------------------------------------------|

1st Solo:
e |-------8--10b12-12b10p8-------8--------8--10b12-----8-------------------|
B |-10-10------------------10-10------8h10-8------------10-10--8-10-8h10p8-|
G |---------------------------------------------------------------h9-------|
D |------------------------------------------------------------------------|
A |------------------------------------------------------------------------|
E |------------------------------------------------------------------------|


e |-----------8-----8-----8-10p8--8-----12---12---12-----------------------|
B |-10-8----8--8h10--8h10--8----10--12b---12b--12b--12b-10-10-8h10-12b-10--|
G |9--9--7/9-------------------------------------------------------------9-|
D |------------------------------------------------------------------------|
A |------------------------------------------------------------------------|
E |------------------------------------------------------------------------|



e |-------12b14-12-12b14-12-12b14--12--10--10-8-----8--8--10-8-10--10b12---|
B |-10-10--------------------------------10------/10-10--------------------|
G |------------------------------------------------------------------------|
D |------------------------------------------------------------------------|
A |------------------------------------------------------------------------|
E |------------------------------------------------------------------------|


e |-8----8-------------------------------------|
B |---10---10--8-10--8-----------------------8-|
G |----------------/9--7-5h7--------5-7-5h7-9--|
D |--------------------------7-7-5h7-7-7-------|
A |--------------------------------------------|
E |--------------------------------------------|


e |--------8----8--8----8-----8----10-8------------8-----------------------|
B |---8-10--8h10-8--8h10-10p8--8h10-----10-8h10-10---10-8------------------|
G |-/9----9----------------------------------------------9\7-5-5-----------|
D |--------------------------------------------------------------7-5--5-7-5|
A |------------------------------------------------------------------7-----|
E |------------------------------------------------------------------------|


e |------------------------------------------------------------------------|
B |--------------------------------------------5---------------8-10-8h10---|
G |--------5-------5---5----------5-7-5--------7b----7-5-----/9-9--9-------|
D |-7---7----5-7----5-7-7-----7-7--------7p5-7-----------7-7---------------|
A |--/10------------------/10---------------7------------------------------|
E |------------------------------------------------------------------------|


e |------8-10b12-10b12-10p8--10b12-10b12-12-12-12-12-12b10p8-10p8------8---|
B |-8-10-------------------10------------------------------------10-10-----|
G |------------------------------------------------------------------------|
D |------------------------------------------------------------------------|
A |------------------------------------------------------------------------|
E |------------------------------------------------------------------------|


e |-10-10p8---------5----------------|
B |--------10-10--8--5-8p5-----------|
G |-----------------------7-5h7------|
D |----------------------------7-7\--|
A |----------------------------------|
E |----------------------------------|

Drum Break

e |------------------------------------------------------------------------|
B |-5-8b10--10-8-----------------------------------------------------------|
G |--------------9-9p7-5-7b9-7b9--5----5---7b------------------------------|
D |---------------------------------7----7---------------------------------|
A |------------------------------------------------------------------------|
E |------------------------------------------------------------------------|
|                                                                          |
e |-----------------------------------17--17\15----------------------------|
B |--------------------------------/17---------17-/17-15-13-/15-13---------|
G#|---------------------------------------------------------------13\11--13|
E |-------------------------------------------------------------------/12--|
B |------------------------------------------------------------------------|
E |------------------------------------------------------------------------|

e |-10b12--8------7/8-10b12-8----------------------------------------------|
B |---------10-10------------10-10-----------------------------------------|
G |------------------------------------------------------------------------|
D |------------------------------------------------------------------------|
A |------------------------------------------------------------------------|
E |------------------------------------------------------------------------|
|                                                                          |
e |------------------------------------------------------/12-12-10\8-8-----|
B |-----------------------------/13--------13--------13--------------------|
G#|--------------------------------13-13-13--13-13-13--13------------------|
E |------------------------------------------------------------------------|
B |------------------------------------------------------------------------|
E |------------------------------------------------------------------------|

Second Solo:
e |-/17-17\15---/17-17-------------------------/8--------8----12\10-8/12---|
B |----------/17-------17\15-13/17-17\15-\13---/8-/10---8-/10--------------|
G#|-----------------------------------------13--------/8-------------------|
E |------------------------------------------------------------------------|
B |------------------------------------------------------------------------|
E |------------------------------------------------------------------------|

e |----12-12\10---12---/10-8/12-/17-17\15---17\15--/17-/17-----------------|
B |-/13--------/13--/13------------------17------17---------/17--\8-\8-\8--|
G#|----------------------------------------------------------------8--8----|
E |------------------------------------------------------------------------|
B |------------------------------------------------------------------------|
E |------------------------------------------------------------------------|

e |--------------------/17--17\15--/22------------|
B |/10-10\8--/10-8---------------17---------------|
G#|--------8-------8------------------------------|
E |-----------------------------------------------|
B |-----------------------------------------------|
E |-----------------------------------------------|

3rd Verse:
"Well I'm foolish to be here in the first place."
e |-----------------------------------------------|
B |-----------------------------------------------|
G |-----------------------------------------------|
D |----7-7p5---7-5---5-5-7---7-7p5---7-5---5-5----|
A |----------7-----7---------------7-----7-----7--|
E |--5---------------------5----------------------|
|                                                 |
e |/5---------------------------------------------|
B |/5--10\8--/10-8---8/10---10-10\8--/10----------|
G#|--------8-------8----------------8-------------|
E |-----------------------------------------------|
B |-----------------------------------------------|
E |-----------------------------------------------|
"I know some other man is gonna walk in and talk my place."
e |-----------------------------------------------|
B |-----------------------------------------------|
G |-----------------------------------------------|
D |----7-7p5---7-5---5-5-7---7-7p5---7-5---5-5----|
A |----------7-----7---------------7-----7-----7--|
E |--5---------------------5----------------------|
|                                                 |
e |---------------------------------------10\8----|
B |/10-10\8--/10-8---8/10---10-10\8--/10------/10-|
G#|--------8-------8----------------8-------------|
E |-----------------------------------------------|
B |-----------------------------------------------|
E |-----------------------------------------------|

"Ain't no way in the world I'm gonna walk out that front door."
e |-----------------------------------------------|
B |-----------------------------------------------|
G |----7-7p5---7-5---5-5-7---7-7p5---7-5---5-5----|
D |----------7-----7---------------7-----7-----7--|
A |--5---------------------5----------------------|
E |-----------------------------------------------|
|                                                 |
e |-----------------------------------------------|
B |/10-10\8--/10-8---8/10---10-10\8--/10----------|
G#|--------8-------8----------------8-------------|
E |-----------------------------------------------|
B |-----------------------------------------------|
E |-----------------------------------------------|

e |-----------------------------------------------|
B |-----------------------------------------------|
G |-----------------------------------------------|
D |----7-7p5---7-5---5-5-7---7-7p5---7-5---5-5----|
A |----------7-----7---------------7-----7-----7--|
E |--5---------------------5----------------------|
|                                                 |
e |-----------------------------------------------|
B |/10-10\8--/10-8---8/10---10-10\8--/10----------|
G#|--------8-------8----------------8-------------|
E |-----------------------------------------------|
B |-----------------------------------------------|
E |-----------------------------------------------|

"Cause there's a man down there--might be your man, I don't know."
e |--------------------------|
B |--------------------------|
G |----9-9p7---9-7---7-7-9-7-|
D |----------9-----9-------7-|
A |--7-----------------------|
E |--------------------------|
|                            |
e |--------------------------|
B |/8-/8--/8-/8---/8-/10--/10|
G#|-------------8------------|
E |--------------------------|
B |--------------------------|
E |--------------------------|

"Cause there's a man down there--might be your man, I don't know."
e |--------------------------|
B |--------------------------|
G |----9-9p7---9-7---7-7-9-7-|
D |----------9-----9-------7-|
A |--7-----------------------|
E |--------------------------|
|                            |
e |--------------------------|
B |/8-/8--/8-/8---/8-/10--/10|
G#|-------------8------------|
E |--------------------------|
B |--------------------------|
E |--------------------------|

"Cause there's a man down there--Lord, it just might happen to be your man."
e |--------------------------|
B |--------------------------|
G |----9-9p7---9-7---7-7-9-7-|
D |----------9-----9-------7-|
A |--7-----------------------|
E |--------------------------|
|                            |
e |--------------------------|
B |/8-/8--/8-/8---/8-/10--/10|
G#|-------------8------------|
E |--------------------------|
B |--------------------------|
E |--------------------------|

"Oh baby, I just don't know."

e |------------------------------------------------------------------------|
B |---8---8---7---6---6-5----------------4--5------------------------------|
G |--------------------------------------5--6-------------------5h7-5h7----|
D |-----8---7---7---6---5----------------6--7---------------------------5--|
A |--------------------------------------6--7------------------------------|
E |--------------------------------------4--5------------------------------|
|                                                                          |
e |-5/17-17--/17-17--/17----------------/5-/5------------------------------|
B |-5/-------------------15\13-17\13----/5-/5-/15-15\13--------------------|
G#|---------------------------------13--/5-/5-----------11---/13-\11-------|
E |-------------------------------------------------------/12--------------|
B |------------------------------------------------------------------------|
E |------------------------------------------------------------------------|

            
            
Suggest correction
Creating personal tab
Creating personal tab
You can edit any tab online and save it as your Personal.

You can edit, replace or remove any tab part or add personal notes – all changes will be seen only by you.

Personal tabs can be accessed anytime from any device, even offline.
Learn more »
Give kudos to tab author, rate the tab!
1 2 3 4 5
comments
print report bad tab
guest
Wanna post a correction for this tab? Suggest correction