Oops, an error
Loading. Please wait.

Seven Turns intro tab

version 2
version 2

Intro

Interactive

2,793 views 1 this week
1 commentread comment
1 2 3 4 5
1 last vote to show rating
add to favorites
×
Save as Personal and add changes to this tab that will be seen only by you. Learn more ›
×
You can save this tab as Personal to edit and correct it or add notes. All changes will be seen only by you. Learn more »
launch autoscroll
font size
0
reset
how to read this tab
guitar tuner
edit
Autoscroll
slow
fast
+/-
esc
set tempo
stop
Author
Difficulty
Part 1 - Steel String Acoustic
Part 2 - Slide (EADGBe)Standard Tuning

Part 1 is done 4 times in total and the slide starts
after part one has been completed twice (Strumming on D Varies)
You will have to listen to song to figure strumming out.

                               ^  V  ^ (D)
1.|----------------------------2--2--2----------|  x4
  |----------------------------3--3--3----------|
  |--------------2-------0-----2--2--2----------|
  |-----------0-------2-------------------------|
  |--------2-------3----------------------------|
  |-----3---------------------------------------|

2.|-------------------------------------------------------------------|
  |-----------------------------12\10---------12 12/10-10-------------|
  |-----2/4--0--2--2h4 4~2-2-----------12/14--------------------------|
  |-0--------------------------------------------------------12/14----|
  |-------------------------------------------------------------------|
  |-------------------------------------------------------------------|


Chords to song are:

G  - 320033
C* - x32033
C  - x32010
Em - 022000 or 022033
Am - x02210
D  - xx0232


*Slide Parts in rest of song are apparently a mystery so far. If anyone knows them...put em on :P
Suggest correction
Creating personal tab
Creating personal tab
You can edit any tab online and save it as your Personal.

You can edit, replace or remove any tab part or add personal notes – all changes will be seen only by you.

Personal tabs can be accessed anytime from any device, even offline.
Learn more »
Give kudos to tab author, rate the tab!
1 2 3 4 5
comments
print report bad tab
1 comment total.
0 reply
AcousticReefer 10 Oct 07, 2013 08:59 PM

try this part instead
|----------------------------
|------------------------0---
|-----------0------------0---
|-----------0---------2------
|--------2-----2---3---------
|-----3----------------------......

guest
You may want to rate the tab now too:
select rating
Wanna post a correction for this tab? Suggest correction