Oops, an error
Loading. Please wait.

Statesboro Blues tab

version 5
version 5

Whole song

Interactive

3,923 views 12 this week
no commentswrite comment
1 2 3 4 5
1 last vote to show rating
add to favorites
×
Save as Personal and add changes to this tab that will be seen only by you. Learn more ›
×
You can save this tab as Personal to edit and correct it or add notes. All changes will be seen only by you. Learn more »
launch autoscroll
font size
0
reset
how to read this tab
guitar tuner
backing track
0:00
0:00
edit
Autoscroll
slow
fast
+/-
esc
set tempo
stop
Author
--------------------------------------------------------------------------------------------
                        STATESBORO BLUES – The Allman Brothers Band
                                         (W McTell)
                      The Allman Brothers Band at Fillmore East [1971]
--------------------------------------------------------------------------------------------


Tabbed by: varannion
Email:     dm_hughes1@hotmail.com


Tunings

Guitar 1: open E [E B E G# B e] (low to high)
Guitar 2: standard


    Guitar 1
                                       Intro
      NC
e |----------------------------------|-------------------------------|
B |----------------------------------|-------------------------------|
G#|----------------------------------|--------/10----(10)------10\8--|
E |----------------------8-------8---|--10-----------------10--------|
B |------------------10------10------|-------------------------------|
E |----------------------------------|-------------------------------|
  | Guitar 2
e |----------------------------------|-------------------------------|
B |----------------------------------|-------------------------------|
G |----------------------------------|-------------------------------|
D |----------------------10------10--|--12---------------------------|
A |------------------12------12------|-------------------------------|
E |----------------------------------|-------------------------------|




e |------------------------------------------|-------10--10\8------/15--/14--10\8------|
B |------------------------------------------|--/10------------10------------------10--|
G#|------------------------------------------|-----------------------------------------|
E |----10\8----------------------8-------8---|-----------------------------------------|
B |----------10--(10)--------10------10------|-----------------------------------------|
E |------------------------------------------|-----------------------------------------|
  |
e |------------------------------------------|-----------------------------------------|
B |------------------------------------------|-----------------------------------------|
G |------------------------------------------|-----------------------------------------|
D |------------------------------10------10--|--12-------------------------------------|
A |--------------------------12------12------|-----------------------------------------|
E |------------------------------------------|-----------------------------------------|


                                              | gradual
                                               even slide |
e |----10----------------------------|------------------------------|
B |----------------------------------|------------------------------|
G#|----------------------------------|------/8/-----------/13--/10--|
E |----------------------8-------8---|--10--------------------------|
B |------------------10------10------|------------------------------|
E |----------------------------------|------------------------------|
  |
e |----------------------------------|------------------------------|
B |----------------------------------|------------------------------|
G |----------------------------------|------------------------------|
D |----------------------10------10--|--12--------------------------|
A |------------------12------12------|------------------------------|
E |----------------------------------|------------------------------|




e |----------------------------------|------------------------------------|
B |----------------------------------|-/10------9\8-----/10------9\8------|
G#|----------------------------------|------10-------10-/10--10-------10--|
E |----10\8--------------------------|------------------------------------|
B |----------10--(10)\---------------|------------------------------------|
E |----------------------------------|------------------------------------|
  |
e |----------------------------------|------------------------------------|
B |----------------------------------|------------------------------------|
G |----------------------------------|------------------------------------|
D |----------------------10------10--|--12--------------------------------|
A |------------------12------12------|------------------------------------|
E |----------------------------------|------------------------------------|

                                          1st guitar solo

                                            D5
e |----10\8------------------------------|--10\8----------------------------|
B |----------10--10\8--------------8/10--|--------10------------(10)\8------|
G#|-------------------/10----------------|------------------------------10--|
E |------------------------10------------|----------------------------------|
B |--------------------------------------|----------------------------------|
E |--------------------------------------|----------------------------------|
  |
e |--------------------------------------|----------------------------------|
B |--------------------------------------|----------------------------------|
G |------------10------------------------|----------------------------------|
D |----12--12--------------12--12--10----|----------------------------------|
A |--------------------------------------|--12--12--14--14--12--12--14--14--|
E |--------------------------------------|--10--10--10--10--10--10--10--10--|


                                             |gradual even slide|
       G5                                 D5
e |---------/10--/17--/14--10\8--------|--/13/------------------/14-------|
B |----/10-----------------------10\8--|-----------------------------/10--|
G#|------------------------------------|-----------------------------/10--|
E |------------------------------------|----------------------------------|
B |------------------------------------|----------------------------------|
E |------------------------------------|----------------------------------|
  |
e |------------------------------------|----------------------------------|
B |------------------------------------|----------------------------------|
G |------------------------------------|----------------------------------|
D |----12--12--14--14--12--12--14--14--|----------------------------------|
A |----10--10--10--10--10--10--10--10--|--12--12--14--14--12--12--14--14--|
E |------------------------------------|--10--10--10--10--10--10--10--10--|



       D5                                 G5
e |------------------------------------|-----------------------------------------|
B |---(10)\----------------------------|-------------------------------------10--|
G#|---(10)\-------------/10------10\8--|--------------------------------/10------|
E |------------------------------------|--10\8------10--10--(10)-----------------|
B |------------------------------------|--------10-------------------------------|
E |------------------------------------|-----------------------------------------|
  |
e |------------------------------------|-----------------------------------------|
B |------------------------------------|-----------------------------------------|
G |------------------------------------|-----------------------------------------|
D |------------------------------------|--12---12---14---14---12---12---14---14--|
A |----12--12--14--14--12--12--14--14--|--10---10---10---10---10---10---10---10--|
E |----10--10--10--10--10--10--10--10--|-----------------------------------------|



       G5                                 D5
e |------------------------------------|----------------------------------|
B |-----------10------9\8--------------|-----------------------8------10--|
G#|---------------10-------10----------|--------------------------10------|
E |----10----------------------10--10--|--(10)----------------------------|
B |------------------------------------|----------------------------------|
E |------------------------------------|----------------------------------|
  |
e |------------------------------------|----------------------------------|
B |------------------------------------|----------------------------------|
G |------------------------------------|----------------------------------|
D |----12--12--14--14--12--12--14--14--|----------------------------------|
A |----10--10--10--10--10--10--10--10--|--12--12--14--14--12--12--14--14--|
E |------------------------------------|--10--10--10--10--10--10--10--10--|



       D5                                 A5
e |----------------------------10------|--10\8-----------/9----------------------|
B |---(10)\---------------/10----------|-------10--(10)--------10----(10)\8------|
G#|------------------------------------|------------------------------------/10--|
E |------------------------------------|-----------------------------------------|
B |------------------------------------|-----------------------------------------|
E |------------------------------------|-----------------------------------------|
  |
e |------------------------------------|-----------------------------------------|
B |------------------------------------|-----------------------------------------|
G |------------------------------------|-----------------------------------------|
D |------------------------------------|--14---14---16---16---14---14---16---16--|
A |----12--12--14--14--12--12--14--14--|--12---12---12---12---12---12---12---12--|
E |----10--10--10--10--10--10--10--10--|-----------------------------------------|



       G5                                 D5
e |---------/10--/17--/14--10\8--------|--10------------(10)\8------------|
B |----/10-----------------------10\8--|------------------------10--8-----|
G#|------------------------------------|-------------------------------9--|
E |------------------------------------|----------------------------------|
B |------------------------------------|----------------------------------|
E |------------------------------------|----------------------------------|
  |
e |------------------------------------|----------------------------------|
B |------------------------------------|----------------------------------|
G |------------------------------------|----------------------------------|
D |----12--12--14--14--12--12--14--14--|----------------------------------|
A |----10--10--10--10--10--10--10--10--|--12--12--14--14--12--12--14--14--|
E |------------------------------------|--10--10--10--10--10--10--10--10--|

                                        Verse 1

       NC             (A)                 D5
e |------------------------------------|----------------------------------|
B |--------------------------------10--|----------------------------------|
G#|------------/10------------/10------|--/10---------------------/9------|
E |----10------------------------------|----------------------------------|
B |-----------------10--10-------------|----------------------------------|
E |------------------------------------|----------------------------------|
  |
e |------------------------------------|----------------------------------|
B |------------------------------------|----------------------------------|
G |------------------------------------|----------------------------------|
D |----------------------------10------|----------------------------------|
A |----12--10--11--12------12----------|--12--12--14--14--12--12--14--14--|
E |----10------------------------------|--10--10--10--10--10--10--10--10--|



       G5                                 D5
e |------------------------------------|----------------------------------|
B |------------------------------------|----------------------------------|
G#|------------------------------------|----------------------------------|
E |----10\8----------------------------|-------------10------8\-----------|
B |------------------------------------|---------10------10----------/10--|
E |------------------------------------|----------------------------------|
  |
e |------------------------------------|----------------------------------|
B |------------------------------------|----------------------------------|
G |------------------------------------|----------------------------------|
D |----12--12--14--14--12--12--14--14--|----------------------------------|
A |----10--10--10--10--10--10--10--10--|--12--12--14--14--12--12--14--14--|
E |------------------------------------|--10--10--10--10--10--10--10--10--|



       D5                                 G5
e |------------------------------------|----------------------------------|
B |------------------------------------|----------------------------------|
G#|-------------------/11--9-----------|----------------------------------|
E |----10------8/10-----------10--/10--|--(10)\8------------------10--10--|
B |--------10--------------------------|----------------------10----------|
E |------------------------------------|----------------------------------|
  |
e |------------------------------------|----------------------------------|
B |------------------------------------|----------------------------------|
G |------------------------------------|----------------------------------|
D |------------------------------------|--12--12--14--14--12--12--14--14--|
A |----12--12--14--14--12--12--14--14--|--10--10--10--10--10--10--10--10--|
E |----10--10--10--10--10--10--10--10--|----------------------------------|



       G5                                 D5
e |------------------------------------|----------------------------------|
B |------------------------------------|----------------------------------|
G#|------------------------------------|---------/10----------------------|
E |----(10)/14-------------------------|--------------10------10----8/10--|
B |------------------------------------|------------------10--------------|
E |------------------------------------|----------------------------------|
  |
e |------------------------------------|----------------------------------|
B |------------------------------------|----------------------------------|
G |------------------------------------|----------------------------------|
D |----12--12--14--14--12--12--14--14--|----------------------------------|
A |----10--10--10--10--10--10--10--10--|--12--12--14--14--12--12--14--14--|
E |------------------------------------|--10--10--10--10--10--10--10--10--|



       D5                                 A5
e |------------------------------------|----------------------------------|
B |---/10----\8------------------------|------------------------10--------|
G#|--------------10--------------------|-------------------/10------10\8--|
E |--------------------10\8--10\9------|----------------------------------|
B |--------------------------10\9------|----------------------------------|
E |------------------------------------|----------------------------------|
  |
e |------------------------------------|----------------------------------|
B |------------------------------------|----------------------------------|
G |------------------------------------|----------------------------------|
D |------------------------------------|--14--14--16--16--14--14--16--16--|
A |----12--12--14--14--12--12--14--14--|--12--12--12--12--12--12--12--12--|
E |----10--10--10--10--10--10--10--10--|----------------------------------|



       G5                                 D5
e |------------------------------------|------10-----10----10--10\9--------------|
B |------------------------------------|---------10-----10-----------10\9--------|
G#|------------------------------------|-----------------------------------10\8--|
E |----10----10------------------------|-----------------------------------------|
B |------------------------------------|-----------------------------------------|
E |------------------------------------|-----------------------------------------|
  |
e |------------------------------------|-----------------------------------------|
B |------------------------------------|-----------------------------------------|
G |------------------------------------|-----------------------------------------|
D |----12--12--14--14--12--12--14--14--|-----------------------------------------|
A |----10--10--10--10--10--10--10--10--|--12---12---14---14---12---12---14---14--|
E |------------------------------------|--10---10---10---10---10---10---10---10--|

                                        Verse 2

       NC             (A)                 D5
e |----10\9----------------------------|----------------------------------|
B |----------10\8------------------10--|----------------------------------|
G#|----------------10\8-------/10------|--/10-----------------------/9----|
E |------------------------------------|------------------------10--------|
B |----------------------10------------|----------------------------------|
E |------------------------------------|----------------------------------|
  |
e |------------------------------------|----------------------------------|
B |------------------------------------|----------------------------------|
G |------------------------------------|----------------------------------|
D |----------------------------10------|----------------------------------|
A |----12--10--11--12------12----------|--12--12--14--14--12--12--14--14--|
E |----10------------------------------|--10--10--10--10--10--10--10--10--|



       G5                                 D5
e |------------------------------------|-----------------------10----/15--|
B |------------------------------------|--7---8----9----/10---------------|
G#|---------------------------------6--|----7----8---9--------------------|
E |----8-------------------------------|----------------------------------|
B |------------------------------------|----------------------------------|
E |------------------------------------|----------------------------------|
  |
e |------------------------------------|----------------------------------|
B |------------------------------------|----------------------------------|
G |------------------------------------|----------------------------------|
D |----12--12--14--14--12--12--14--14--|----------------------------------|
A |----10--10--10--10--10--10--10--10--|--12--12--14--14--12--12--14--14--|
E |------------------------------------|--10--10--10--10--10--10--10--10--|



       D5                                 G5
e |----10\8--------------------10------|-(10)\----------------------------|
B |----------10\8--------------10------|-(10)\-------------------9\8------|
G#|----------------10\9----------------|---------------------10-------10--|
E |----------------------10------------|----------------------------------|
B |------------------------------------|----------------------------------|
E |------------------------------------|----------------------------------|
  |
e |------------------------------------|----------------------------------|
B |------------------------------------|----------------------------------|
G |------------------------------------|----------------------------------|
D |------------------------------------|--12--12--14--14--12--12--14--14--|
A |----12--12--14--14--12--12--14--14--|--10--10--10--10--10--10--10--10--|
E |----10--10--10--10--10--10--10--10--|----------------------------------|



       G5                                 D5
e |------------------------------------|----------------------------------|
B |------------------------------------|----------------------------------|
G#|------------------------------------|------/10-------------------------|
E |----10------------------------------|------------10---------10\8----x--|
B |------------------------------------|-----------------10---------------|
E |------------------------------------|----------------------------------|
  |
e |------------------------------------|----------------------------------|
B |------------------------------------|----------------------------------|
G |------------------------------------|----------------------------------|
D |----12--12--14--14--12--12--14--14--|----------------------------------|
A |----10--10--10--10--10--10--10--10--|--12--12--14--14--12--12--14--14--|
E |------------------------------------|--10--10--10--10--10--10--10--10--|


                    let ring
       D5                                 A5
e |------------------------------------|----------------------------------|
B |----/10---10\9----------------------|----------------------------------|
G#|-----------------10----------8/10---|-------------------------/10\8----|
E |---------------------10-------------|----------------------------------|
B |------------------------------------|----------------------------------|
E |------------------------------------|----------------------------------|
  |
e |------------------------------------|----------------------------------|
B |------------------------------------|----------------------------------|
G |------------------------------------|----------------------------------|
D |------------------------------------|--14--14--16--16--14--14--16--16--|
A |----12--12--14--14--12--12--14--14--|--12--12--12--12--12--12--12--12--|
E |----10--10--10--10--10--10--10--10--|----------------------------------|



       G5                                 D5
e |------------------------------------|----------------------------------|
B |------------------------------------|----------------------------------|
G#|------------------------------------|----------------------------------|
E |----10------------------------------|-/10--10--10--10--10--10--10--10--|
B |------------------------------------|----------------------------------|
E |------------------------------------|----------------------------------|
  |
e |------------------------------------|----------------------------------|
B |------------------------------------|----------------------------------|
G |------------------------------------|----------------------------------|
D |----12--12--14--14--12--12--14--14--|----------------------------------|
A |----10--10--10--10--10--10--10--10--|--12--12--14--14--12--12--14--14--|
E |------------------------------------|--10--10--10--10--10--10--10--10--|

                                        2nd guitar solo

       NC             (A)                 D5
e |------------------------------------|--/9\8------8/10------(10)--------|
B |------------------------------------|--------10------------------10\8--|
G#|------------------------------------|----------------------------------|
E |----10\8------8---------------------|----------------------------------|
B |----------10-----10---------(10)\---|----------------------------------|
E |------------------------------------|----------------------------------|
  |
e |------------------------------------|----------------------------------|
B |------------------------------------|----------------------------------|
G |------------------------------------|----------------------------------|
D |----------------------------10------|----------------------------------|
A |----12--10--11--12------12----------|--12--12--14--14--12--12--14--14--|
E |----10------------------------------|--10--10--10--10--10--10--10--10--|



       G5                                        D5
e |-------------------------------------------|----------------------------------|
B |-----------------------------10--10\8------|-----------------------/15\-------|
G#|----/10\8---------------/10------------10--|--8/10-----------(10)--------/10--|
E |-----------10--(10)-----/10----------------|----------------------------------|
B |-------------------------------------------|----------------------------------|
E |-------------------------------------------|----------------------------------|
  |
e |-------------------------------------------|----------------------------------|
B |-------------------------------------------|----------------------------------|
G |-------------------------------------------|----------------------------------|
D |----12---12---14---14---12---12---14---14--|----------------------------------|
A |----10---10---10---10---10---10---10---10--|--12--12--14--14--12--12--14--14--|
E |-------------------------------------------|--10--10--10--10--10--10--10--10--|



       D5                                 G5
e |------------------------------------|----------------------------------|
B |------------------------------------|----------------------------------|
G#|------------------------------------|----------------------------------|
E |----8/10---------------(10)/15------|-(15)-----------\8------10--10----|
B |------------------------------------|----------------------------------|
E |------------------------------------|----------------------------------|
  |
e |------------------------------------|----------------------------------|
B |------------------------------------|----------------------------------|
G |------------------------------------|----------------------------------|
D |------------------------------------|--12--12--14--14--12--12--14--14--|
A |----12--12--14--14--12--12--14--14--|--10--10--10--10--10--10--10--10--|
E |----10--10--10--10--10--10--10--10--|----------------------------------|


                                              ~~~~~~~~~~
       G5                                 D5
e |------------------------------------|----------------------------------|
B |--------------------------------10--|------------------------10--------|
G#|-----------/10-----------/10--------|---8/10------(10)--/10------10\8--|
E |---(10)----------10\8---------------|----------------------------------|
B |------------------------------------|----------------------------------|
E |------------------------------------|----------------------------------|
  |
e |------------------------------------|----------------------------------|
B |------------------------------------|----------------------------------|
G |------------------------------------|----------------------------------|
D |----12--12--14--14--12--12--14--14--|----------------------------------|
A |----10--10--10--10--10--10--10--10--|--12--12--14--14--12--12--14--14--|
E |------------------------------------|--10--10--10--10--10--10--10--10--|



       D5                                        A5
e |-----------------------------------10------|--10\9----------/9------------10--|
B |------------------------/10--(10)------10--|--------10------------10----------|
G#|-------------------------------------------|----------------------------------|
E |----10\8-----10--10------------------------|----------------------------------|
B |---------10--------------------------------|----------------------------------|
E |-------------------------------------------|----------------------------------|
  |
e |-------------------------------------------|----------------------------------|
B |-------------------------------------------|----------------------------------|
G |-------------------------------------------|----------------------------------|
D |-------------------------------------------|--14--14--16--16--14--14--16--16--|
A |----12---12---14---14---12---12---14---14--|--12--12--12--12--12--12--12--12--|
E |----10---10---10---10---10---10---10---10--|----------------------------------|


                                           ~~~~~~~~~~~~~~
       G5                                  D5
e |----/14---10---10--10\8--------/14--|---10--10--10--10--10\8----10-10--|
B |-------------------------10\8-------|------------------------10--------|
G#|------------------------------------|----------------------------------|
E |------------------------------------|----------------------------------|
B |------------------------------------|----------------------------------|
E |------------------------------------|----------------------------------|
  |
e |------------------------------------|----------------------------------|
B |------------------------------------|----------------------------------|
G |------------------------------------|----------------------------------|
D |----12--12--14--14--12--12--14--14--|----------------------------------|
A |----10--10--10--10--10--10--10--10--|--12--12--14--14--12--12--14--14--|
E |------------------------------------|--10--10--10--10--10--10--10--10--|


                                              ~~~~~~~~~~~~
       NC        (A)                      D5
e |----10\-----------------------------|----------------------------------|
B |-----------/21---22--22--21/22--22--|--21/22---------(22)----20----19--|
G#|------------------------------------|----------------------------------|
E |------------------------------------|----------------------------------|
B |------------------------------------|----------------------------------|
E |------------------------------------|----------------------------------|
  |
e |------------------------------------|----------------------------------|
B |------------------------------------|----------------------------------|
G |------------------------------------|----------------------------------|
D |----------------------------10------|----------------------------------|
A |----12--10--11--12------12----------|--12--12--14--14--12--12--14--14--|
E |----10------------------------------|--10--10--10--10--10--10--10--10--|

         | gradual                                                           let
           slide |                                 ~~~~~~~~                  ring
       G5                                        D5
e |-----------------------------22\20---------|--22------------------------------|
B |----20/------/22---(0)--/22---------22\20--|----------------------------------|
G#|-------------------------------------------|------------22--/23--22--/23--22--|
E |-------------------------------------------|----------------------------------|
B |-------------------------------------------|----------------------------------|
E |-------------------------------------------|----------------------------------|
  |
e |-------------------------------------------|----------------------------------|
B |-------------------------------------------|----------------------------------|
G |-------------------------------------------|----------------------------------|
D |----12---12---14---14---12---12---14---14--|----------------------------------|
A |----10---10---10---10---10---10---10---10--|--12--12--14--14--12--12--14--14--|
E |-------------------------------------------|--10--10--10--10--10--10--10--10--|



       D5                                 G5
e |------------------------------------|----------------------------------|
B |------------------------------------|----------------------------------|
G#|------------------------------------|----------------------------------|
E |----22------/25---(25)\24--25\24----|--22----22\21----21/22----22/25---|
B |--------22--------------------------|----------------------------------|
E |------------------------------------|----------------------------------|
  |
e |------------------------------------|----------------------------------|
B |------------------------------------|----------------------------------|
G |------------------------------------|----------------------------------|
D |------------------------------------|--12--12--14--14--12--12--14--14--|
A |----12--12--14--14--12--12--14--14--|--10--10--10--10--10--10--10--10--|
E |----10--10--10--10--10--10--10--10--|----------------------------------|



       G5                                 D5
e |------------------------------------|---------------------------22\20---------|
B |--------------------------22\20-----|--22\21------22----(22)-----------22\20--|
G#|----------21\20-----------------22--|--------21/------------------------------|
E |---\20-------------22\--------------|-----------------------------------------|
B |------------------------------------|-----------------------------------------|
E |------------------------------------|-----------------------------------------|
  |
e |------------------------------------|-----------------------------------------|
B |------------------------------------|-----------------------------------------|
G |------------------------------------|-----------------------------------------|
D |----12--12--14--14--12--12--14--14--|-----------------------------------------|
A |----10--10--10--10--10--10--10--10--|--12---12---14---14---12---12---14---14--|
E |------------------------------------|--10---10---10---10---10---10---10---10--|



       D5                                 A5
e |----/22-----------------------------|------------------------------------------|
B |---------22\20-------------/22------|--20----20-----20-----20----20-----20-----|
G#|----------------22--------------22--|-----22-----22----22-----22-----22----22--|
E |--------------------22\-------------|------------------------------------------|
B |------------------------------------|------------------------------------------|
E |------------------------------------|------------------------------------------|
  |
e |------------------------------------|------------------------------------------|
B |------------------------------------|------------------------------------------|
G |------------------------------------|------------------------------------------|
D |------------------------------------|--14---14---16---16---14---14---16---16---|
A |----12--12--14--14--12--12--14--14--|--12---12---12---12---12---12---12---12---|
E |----10--10--10--10--10--10--10--10--|------------------------------------------|



       G5                                            D5
e |-----------------------------------------------|--------22--22--22\20----------/26--|
B |----22\20----20-----22\20-----20----20---------|-----------------------22-----------|
G#|----------22-----22-------22-----22-----22-----|------------------------------------|
E |-------------------------------------------22--|--22--------------------------------|
B |-----------------------------------------------|------------------------------------|
E |-----------------------------------------------|------------------------------------|
  |
e |-----------------------------------------------|------------------------------------|
B |-----------------------------------------------|------------------------------------|
G |-----------------------------------------------|------------------------------------|
D |----12---12---14---14-----12---12---14---14----|------------------------------------|
A |----10---10---10---10-----10---10---10---10----|--12--12--14--14----12--12--14--14--|
E |-----------------------------------------------|--10--10--10--10----10--10--10--10--|

                                               Verse 3

       NC              (A)                       NC
e |----/22------------------------------------|----------------------------------|
B |---------22\20------/22--------------------|----------------------------------|
G#|----------------22-------------------------|----------------------------------|
E |-------------------------------8-------8---|--10------------------8-------8---|
B |---------------------------10------10------|------------------10------10------|
E |-------------------------------------------|----------------------------------|
  |
e |-------------------------------------------|----------------------------------|
B |-------------------------------------------|----------------------------------|
G |-------------------------------------------|----------------------------------|
D |-------------------------------10------10--|--12------------------10------10--|
A |----12--10--11--12--(12)---12------12------|------------------12------12------|
E |----10-------------------------------------|----------------------------------|



 
e |------------------------------------|----------------------------------|
B |------------------------------------|----------------------------------|
G#|------------------------------------|----------------------------------|
E |----10------------------8-------8---|--10------------------8-------8---|
B |--------------------10------10------|------------------10------10------|
E |------------------------------------|----------------------------------|
  |
e |------------------------------------|----------------------------------|
B |------------------------------------|----------------------------------|
G |------------------------------------|----------------------------------|
D |----12------------------10------10--|--12------------------10------10--|
A |--------------------12------12------|------------------12------12------|
E |------------------------------------|----------------------------------|



                                          G5
e |------------------------------------|----------------------------------|
B |------------------------------------|----------------------------------|
G#|-------------9\8--------------------|-------------------------/10\8----|
E |---10--10/--------10\8------10--10--|----------------------------------|
B |------------------------10----------|----------------------------------|
E |------------------------------------|----------------------------------|
  |
e |------------------------------------|----------------------------------|
B |------------------------------------|----------------------------------|
G |------------10\9--------------------|----------------------------------|
D |---12--12---------12---12---10------|--12--12--14--14--12--12--14--14--|
A |------------------------------------|--10--10--10--10--10--10--10--10--|
E |------------------------------------|----------------------------------|



       G5                                 D5
e |------------------------------------|-----------10\8--------------------------|
B |------------------------------------|------/10--------10--(10)------8/10------|
G#|------------------------------------|-----------------------------------------|
E |----10------------------------------|-----------------------------------------|
B |------------------------------------|-----------------------------------------|
E |------------------------------------|-----------------------------------------|
  |
e |------------------------------------|-----------------------------------------|
B |------------------------------------|-----------------------------------------|
G |------------------------------------|-----------------------------------------|
D |----12--12--14--14--12--12--14--14--|-----------------------------------------|
A |----10--10--10--10--10--10--10--10--|--12---12---14---14---12---12---14---14--|
E |------------------------------------|--10---10---10---10---10---10---10---10--|



       D5                                        A5
e |-------------------------------------------|----------------------------------|
B |----10\8------10\8-------------------------|----------------------------------|
G#|----------10--------10---------------------|----------------------------10\8--|
E |--------------------------10\8-------------|----------------------------------|
B |---------------------------------10\8------|----------------------------------|
E |-------------------------------------------|----------------------------------|
  |
e |-------------------------------------------|----------------------------------|
B |-------------------------------------------|----------------------------------|
G |-------------------------------------------|----------------------------------|
D |-------------------------------------------|--14--14--16--16--14--14--16--16--|
A |----12---12---14---14---12---12---14---14--|--12--12--12--12--12--12--12--12--|
E |----10---10---10---10---10---10---10---10--|----------------------------------|



       G5                                 D5
e |------------------------------------|----------------------------------|
B |------------------------------------|----------------------------------|
G#|------------------------------------|----------------------------------|
E |----/10-----------------------------|-/10--10--10--10--10--10--10--10--|
B |------------------------------------|----------------------------------|
E |------------------------------------|----------------------------------|
  |
e |------------------------------------|----------------------------------|
B |------------------------------------|----------------------------------|
G |------------------------------------|----------------------------------|
D |----12--12--14--14--12--12--14--14--|----------------------------------|
A |----10--10--10--10--10--10--10--10--|--12--12--14--14--12--12--14--14--|
E |------------------------------------|--10--10--10--10--10--10--10--10--|

                                            3rd guitar solo

                       A                      D5
e |----------------------------------------|----------------------------------|
B |----------------------------------------|----------------------------------|
G#|----------------------------------------|----------------------------------|
E |----10\8------8-------------------------|----------------------------------|
B |----------10-----10--(10)---------------|--10------12------13------12------|
E |----------------------------------------|--10------10------10------10------|
  |
e |----------------------------------------|--7-------------------------------|
B |----------------------------------------|-----10---------------------------|
G |------------------------------9b11------|---------9b11------7------7-------|
D |----------------------------------------|-------------------------------9--|
A |----12----------------------------------|----------------------------------|
E |----10----------------------------------|----------------------------------|



       G5                                 D5
e |------------------------------------|-----------------------------------|
B |------------------------------------|-----------------------------------|
G#|------------------------------------|-----------------------------------|
E |------------------------------------|-----------------------------------|
B |----15------17------18------15------|--10------12------13------12-------|
E |----15------15------15------15------|--10------10------10------10-------|
  |                            bss
e |------------------------------------|--7------------7------------7------|
B |------------------------------------|-----10-----------10-----------10--|
G |----7--7----7-------7-------9--(0)--|---------9b11---------9b11---------|
D |----------------9-------------------|-----------------------------------|
A |------------------------------------|-----------------------------------|
E |------------------------------------|-----------------------------------|



       D5                                    G5
e |---------------------------------------|----------------------------------|
B |---------------------------------------|----------------------------------|
G#|---------------------------------------|----------------------------------|
E |---------------------------------------|----------------------------------|
B |----10-------12-------13-------12------|---15------17------18------15-----|
E |----10-------10-------10-------10------|---15------15------15------15-----|
  |
e |----------7------------7------------7--|----------------------------------|
B |-------------10-----------10-----------|------------------------------10--|
G |----9b11---------9b11---------9b11-----|--9b10r9----7---------7/11--------|
D |---------------------------------------|-----------------9----------------|
A |---------------------------------------|----------------------------------|
E |---------------------------------------|----------------------------------|



       G5                                 D5
e |------------------------------------|----------------------------------|
B |------------------------------------|----------------------------------|
G#|------------------------------------|----------------------------------|
E |------------------------------------|----------------------------------|
B |----15------17------18------15------|---10------12------13------12-----|
E |----15------15------15------15------|---10------10------10------10-----|
  |                                        ~~~~              ~~~~
e |------------------------------------|----------------------------------|
B |----13----15------17b19--17b19--17--|--15----15------15--15----15------|
G |--------------16--------------------|------------16----------------16--|
D |------------------------------------|----------------------------------|
A |------------------------------------|----------------------------------|
E |------------------------------------|----------------------------------|



       D5                                  A5
e |-------------------------------------|----------------------------------|
B |-------------------------------------|----------------------------------|
G#|-------------------------------------|----------------------------------|
E |-------------------------------------|----------------------------------|
B |----10------12------13------12-------|---17------19------20------19-----|
E |----10------10------10------10-------|---17------17------17------17-----|
  |                                          |   hold bend   |
  |         ~~~~            | let ring |       | let ring |     ~~~~
e |-----------------------------17--17--|---------17--17-------------------|
B |----15--15----15------17b19----------|--17b19----------(19)r17------15--|
G |------------------16-----------------|----------------------------------|
D |-------------------------------------|----------------------------------|
A |-------------------------------------|----------------------------------|
E |-------------------------------------|----------------------------------|



       G5                                     D5
e |----------------------------------------|----------------------------------|
B |----------------------------------------|----------------------------------|
G#|----------------------------------------|----------------------------------|
E |----------------------------------------|----------------------------------|
B |----15-------17-------18-------15-------|--10------13------12------11------|
E |----15-------15-------15-------15-------|--10------------------------------|
  |
e |----17b19--17b19--17b19--17-------------|----------------------------------|
B |-----------------------------17b19--17--|--15------13------12------11------|
G |----------------------------------------|----------------------------------|
D |----------------------------------------|----------------------------------|
A |----------------------------------------|----------------------------------|
E |----------------------------------------|----------------------------------|



                       A                  D5
e |------------------------------------|----------------------------------|
B |------------------------------------|----------------------------------|
G#|------------------------------------|----------------------------------|
E |------------------------------------|----------------------------------|
B |----10----------10----10------------|--10------12------13------12------|
E |------------------------------------|--10------10------10------10------|
  |
e |------------------------------------|--10-------------10----------13---|
B |----10----------10----10------------|--------13b15----------13---------|
G |----------12-----------------13b15--|----------------------------------|
D |------------------------------------|----------------------------------|
A |------------------------------------|----------------------------------|
E |------------------------------------|----------------------------------|



       G5                                 D5
e |------------------------------------|--------------------------------------------|
B |------------------------------------|--------------------------------------------|
G#|------------------------------------|--------------------------------------------|
E |------------------------------------|--------------------------------------------|
B |----15------17------18------15------|--10---------12---------13---------12-------|
E |----15------15------15------15------|--10---------10---------10---------10-------|
  |
e |----------------------13---14---15--|--15b17--15b17--15b17--15b17--15b17--15b17--|
B |----15---15p13---15-----------------|--------------------------------------------|
G |------------------------------------|--------------------------------------------|
D |------------------------------------|--------------------------------------------|
A |------------------------------------|--------------------------------------------|
E |------------------------------------|--------------------------------------------|



       D5                                 G5
e |------------------------------------|----------------------------------|
B |------------------------------------|----------------------------------|
G#|------------------------------------|----------------------------------|
E |------------------------------------|----------------------------------|
B |----10------12------13------12------|---15------17------18------15-----|
E |----10------10------10------10------|---15------15------15------15-----|
  |                    bss                 ~~~~
e |----15b17--15--15--15---------------|-----------------------13---------|
B |-----------------------15----15p13--|--15------15p13----15------15p13--|
G |------------------------------------|----------------------------------|
D |------------------------------------|----------------------------------|
A |------------------------------------|----------------------------------|
E |------------------------------------|----------------------------------|



       G5                                 D5
e |------------------------------------|----------------------------------|
B |------------------------------------|----------------------------------|
G#|------------------------------------|----------------------------------|
E |------------------------------------|----------------------------------|
B |----15------17------18------15------|---10------12------13------12-----|
E |----15------15------15------15------|---10------10------10------10-----|
  |     ~~~~
e |---------------------13-------------|--------------------15b17--15b17--|
B |----15----15p13--15------15p13------|--15----15--13--15----------------|
G |--------------------------------14--|----------------------------------|
D |------------------------------------|----------------------------------|
A |------------------------------------|----------------------------------|
E |------------------------------------|----------------------------------|



       D5                                          A5
e |---------------------------------------------|--------------------------------------------|
B |---------------------------------------------|--------------------------------------------|
G#|---------------------------------------------|--------------------------------------------|
E |---------------------------------------------|--------------------------------------------|
B |----10--------12--------13--------12---------|--17--------19--------20--------19----------|
E |----10--------10--------10--------10---------|--17--------17--------17--------17----------|
  |
e |---15b17--15b17--15b17--15b17--15b17--15b17--|--15b17--15b17--15b17--15b17--15b17--15b17--|
B |---------------------------------------------|--------------------------------------------|
G |---------------------------------------------|--------------------------------------------|
D |---------------------------------------------|--------------------------------------------|
A |---------------------------------------------|--------------------------------------------|
E |---------------------------------------------|--------------------------------------------|



       G5                                        D5
e |-------------------------------------------|----------------------------------|
B |-------------------------------------------|----------------------------------|
G#|-------------------------------------------|----------------------------------|
E |-------------------------------------------|----------------------------------|
B |----15--------17--------18--------15-------|--10------13------12------11------|
E |----15--------15--------15--------15-------|--10------------------------------|
  |
e |----15b17--15b17--15b17--15b17--15--13h14--|----------------------------------|
B |-------------------------------------------|--15--15--13--13--12--12--11--11--|
G |-------------------------------------------|----------------------------------|
D |-------------------------------------------|----------------------------------|
A |-------------------------------------------|----------------------------------|
E |-------------------------------------------|----------------------------------|

                                        Verse 4

                       A                  D5
e |------------------------------------|----------------------------------|
B |------------------------------------|----------------------------------|
G#|------------------------------------|--/10----------------/10----/8----|
E |------------------------------------|----------------------------------|
B |----10----------10----10------------|----------------------------------|
E |------------------------------------|----------------------------------|
  |
e |------------------------------------|----------------------------------|
B |----10------------------------------|----------------------------------|
G |--------12p10h11--------------------|----------------------------------|
D |------------------12----------------|----------------------------------|
A |------------------------12---(12)\--|--12--12--14--14--12--12--14--14--|
E |------------------------------------|--10--10--10--10--10--10--10--10--|



       G5                                 D5
e |------------------------------------|----------------------------------|
B |------------------------------------|------8/10----10\8----------8/10--|
G#|----10\8----------------------------|----------------------10----------|
E |----------10\8----------------------|----------------------------------|
B |------------------------------------|----------------------------------|
E |------------------------------------|----------------------------------|
  |
e |------------------------------------|----------------------------------|
B |------------------------------------|----------------------------------|
G |------------------------------------|----------------------------------|
D |----12--12--14--14--12--12--14--14--|----------------------------------|
A |----10--10--10--10--10--10--10--10--|--12--12--14--14--12--12--14--14--|
E |------------------------------------|--10--10--10--10--10--10--10--10--|



       D5                                 G5
e |------------------------------------|--------------------22\20---------|
B |----/13--10\8-----------------------|---------------------------22\20--|
G#|---------------/10------------------|----------------------------------|
E |----------------------10----(10)\7--|----------------------------------|
B |------------------------------------|----------------------------------|
E |------------------------------------|----------------------------------|
  |
e |------------------------------------|----------------------------------|
B |------------------------------------|----------------------------------|
G |------------------------------------|----------------------------------|
D |------------------------------------|--12--12--14--14--12--12--14--14--|
A |----12--12--14--14--12--12--14--14--|--10--10--10--10--10--10--10--10--|
E |----10--10--10--10--10--10--10--10--|----------------------------------|



       G5                                 D5
e |------------------------------------|----------------------------------|
B |----/22-----------------------------|-------10------8------10--(10)\8--|
G#|---------22----------------(22)\----|-----------10-----10\-------------|
E |------------------------------------|----------------------------------|
B |------------------------------------|--/10-----------------------------|
E |------------------------------------|----------------------------------|
  |
e |------------------------------------|----------------------------------|
B |------------------------------------|----------------------------------|
G |------------------------------------|----------------------------------|
D |----12--12--14--14--12--12--14--14--|----------------------------------|
A |----10--10--10--10--10--10--10--10--|--12--12--14--14--12--12--14--14--|
E |------------------------------------|--10--10--10--10--10--10--10--10--|



       D5                                 A5
e |------------------------------------|----------------------------------|
B |----10\8----------------------------|----------------------------------|
G#|----------/10-----------------------|----------------------------------|
E |---------------10/14----------------|------------------------10/14\12--|
B |----------------------10----(10)\---|----------------------------------|
E |------------------------------------|----------------------------------|
  |
e |------------------------------------|----------------------------------|
B |------------------------------------|----------------------------------|
G |------------------------------------|----------------------------------|
D |------------------------------------|--14--14--16--16--14--14--16--16--|
A |----12--12--14--14--12--12--14--14--|--12--12--12--12--12--12--12--12--|
E |----10--10--10--10--10--10--10--10--|----------------------------------|



       G5                                 D5
e |------------------------------------|------10-----10----10--10\9--------------|
B |------------------------------------|--/10----10-----10-----------10\9--------|
G#|------------------------------------|-----------------------------------10\8--|
E |------------------------------------|-----------------------------------------|
B |----\10------------------(10)\------|-----------------------------------------|
E |------------------------------------|-----------------------------------------|
  |
e |------------------------------------|-----------------------------------------|
B |------------------------------------|-----------------------------------------|
G |------------------------------------|-----------------------------------------|
D |----12--12--14--14--12--12--14--14--|-----------------------------------------|
A |----10--10--10--10--10--10--10--10--|--12---12---14---14---12---12---14---14--|
E |------------------------------------|--10---10---10---10---10---10---10---10--|

                                        Verse 5
                                           ~~~~~~~~~~~~~
                       A                  D5
e |----10\9----------------------------|--10---------(10)-----------------|
B |----------10\9----------------------|--10---------(10)-------10\8------|
G#|----------------/10-------------10--|--------------------10--------10--|
E |--------------------------/10-------|----------------------------------|
B |---------------------10-------------|----------------------------------|
E |------------------------------------|----------------------------------|
  |
e |------------------------------------|----------------------------------|
B |------------------------------------|----------------------------------|
G |------------------------------------|----------------------------------|
D |----------------------------10------|----------------------------------|
A |----12--10--11--12------12----------|--12--12--14--14--12--12--14--14--|
E |----10------------------------------|--10--10--10--10--10--10--10--10--|



       G5                                 D5
e |----/10-----------------------------|--/10--/10--/10---/10--/10--/10---|
B |----/10-----------------------------|--/10--/10--/10---/10--/10--/10---|
G#|--------------------------10\8------|----------------------------------|
E |----------------------10--------10--|----------------------------------|
B |------------------------------------|----------------------------------|
E |------------------------------------|----------------------------------|
  |
e |------------------------------------|----------------------------------|
B |------------------------------------|----------------------------------|
G |------------------------------------|----------------------------------|
D |----12--12--14--14--12--12--14--14--|----------------------------------|
A |----10--10--10--10--10--10--10--10--|--12--12--14--14--12--12--14--14--|
E |------------------------------------|--10--10--10--10--10--10--10--10--|



       D5                                 G5
e |---/17--/14--/10--------------------|--10------------------------------|
B |------------------10\8---------/10--|------------------------10\8------|
G#|------------------------9-----------|------------------------------10--|
E |---------------------------10-------|--------------------10------------|
B |------------------------------------|----------------------------------|
E |------------------------------------|----------------------------------|
  |
e |------------------------------------|----------------------------------|
B |------------------------------------|----------------------------------|
G |------------------------------------|----------------------------------|
D |------------------------------------|--12--12--14--14--12--12--14--14--|
A |----12--12--14--14--12--12--14--14--|--10--10--10--10--10--10--10--10--|
E |----10--10--10--10--10--10--10--10--|----------------------------------|


         ~~~~~~~~~~~~
       G5                                 D5
e |----/10---------(10)\---------------|------------------------------------------|
B |----/10---------(10)\---------------|--13-13-13--13-13-13--13-13-13--13-13-13--|
G#|------------------------9/13\-------|-------------------------13-13--13-13-13--|
E |-------------------------------/13--|------------------------------------------|
B |------------------------------------|------------------------------------------|
E |------------------------------------|------------------------------------------|
  |
e |------------------------------------|------------------------------------------|
B |------------------------------------|------------------------------------------|
G |------------------------------------|------------------------------------------|
D |----12--12--14--14--12--12--14--14--|------------------------------------------|
A |----10--10--10--10--10--10--10--10--|--12---12---14---14---12---12---14---14---|
E |------------------------------------|--10---10---10---10---10---10---10---10---|



       D5                                  A5
e |---------------------------10\8------|--10/12-----------(12)--/17--/14--|
B |----13\------10\8----------------10--|----------------------------------|
G#|----13\--10--------10----------------|----------------------------------|
E |-----------------------10------------|----------------------------------|
B |-------------------------------------|----------------------------------|
E |-------------------------------------|----------------------------------|
  |
e |-------------------------------------|----------------------------------|
B |-------------------------------------|----------------------------------|
G |-------------------------------------|----------------------------------|
D |-------------------------------------|--14--14--16--16--14--14--16--16--|
A |----12--12--14--14--12--12--14--14---|--12--12--12--12--12--12--12--12--|
E |----10--10--10--10--10--10--10--10---|----------------------------------|



       G5                                 D5
e |----/10--------------------(10)-----|------10-----10----10--10\9--------------|
B |------------------------------------|--/10----10-----10-----------10\9--------|
G#|---------------------------------6--|-----------------------------------/10---|
E |------------------------------------|-----------------------------------------|
B |------------------------------------|-----------------------------------------|
E |------------------------------------|-----------------------------------------|
  |
e |------------------------------------|-----------------------------------------|
B |------------------------------------|-----------------------------------------|
G |------------------------------------|-----------------------------------------|
D |----12--12--14--14--12--12--14--14--|-----------------------------------------|
A |----10--10--10--10--10--10--10--10--|--12---12---14---14---12---12---14---14--|
E |------------------------------------|--10---10---10---10---10---10---10---10--|


                        ~~~~~~
       D5
e |------------------------------------|
B |------------------------------------|
G#|-----------9/10----(10)----(10)\----|
E |----10\----9/10----(10)----(10)\----|
B |------------------------------------|
E |------------------------------------|
  |
e |------------------------------------|
B |------------------------------------|
G |------------------------------------|
D |------------------------------------|
A |----12-------12----(12)-------------|
E |----10-------10----(10)-------------|




| NC               |

Intro

| NC               |                  |                  |                  |

|                  |                  |                  |                  |

1st guitar solo

| D5               | G5               | D5               | D5               |

| G5               | G5               | D5               | D5               |

| A5               | G5               | D5               | NC      (A)      |

Verse 1

D5
Wake up mama
G5                         D5                D5
Turn your lamp down low
G5
Wake up mama
G5                         D5                D5
Turn your lamp down low
    A5
You got no love, baby
   G5                                 D5                NC        (A)
You turn Uncle John from your door

Verse 2

D5
I woke up this morning
G5                         D5                D5
Had them Statesboro blues
G5
I woke up this morning
G5                             D5                D5
And had them Statesboro blues
              A5
Well I looked over in the corner, baby
G5                                     D5                NC        (A)
And Grandma seemed to have them too

2nd guitar solo

| D5               | G5               | D5               | D5               |

| G5               | G5               | D5               | D5               |

| A5               | G5               | D5               | NC      (A)      |

| D5               | G5               | D5               | D5               |

| G5               | G5               | D5               | D5               |

| A5               | G5               | D5               | NC      (A)      |

Verse 3

NC
Mama died and left me

My Papa died and left me

I ain’t good-lookin’, baby

But somewhat sweet and kind
G5
I’m goin’ to the country
G5                                   D5                D5
Baby, do you want to go?
   A5
If you can’t make it, baby
G5
Your sister Lucille said
       D5
She’ll wanna go
           A5
And I sure will take her

3rd guitar solo

| D5               | G5               | D5               | D5               |

| G5               | G5               | D5               | D5               |

| A5               | G5               | D5               |         A        |

| D5               | G5               | D5               | D5               |

| G5               | G5               | D5               | D5               |

| A5               | G5               | D5               |         A        |

Verse 4

D5
I love that woman
G5                         D5                D5
Better than any woman I’ve ever seen
G5
Well, I love that woman
G5                         D5                D5
Better than any woman I’ve ever seen
          A5
Well, she treat me like a king, yeah, yeah
   G5                   D5                    A5
Yeah, I treat her like a doggone queen

Verse 5

D5
Oh, wake up mama
G5                  D5                D5
Turn your lamp down low
G5
Wake up mama
G5                         D5                D5
Turn your lamp down low
    A5
You got no love, baby
G5                            D5
You turn Uncle John from your door
D5
Yeah!





NC   no chord
/    slide up
\    slide down
h    hammer-on
p    pull-off
pb   pre-bend
co   cut off
pr   partial release
bss  bend slightly sharp
~~   vibrato


===============================================================================  20 Oct 2011

            
            
Suggest correction
Creating personal tab
Creating personal tab
You can edit any tab online and save it as your Personal.

You can edit, replace or remove any tab part or add personal notes – all changes will be seen only by you.

Personal tabs can be accessed anytime from any device, even offline.
Learn more »
Give kudos to tab author, rate the tab!
1 2 3 4 5
comments
print report bad tab
guest
You may want to rate the tab now too:
select rating
Wanna post a correction for this tab? Suggest correction