Oops, an error
Loading. Please wait.

Stormy Monday Bass Tab

version 2
version 2

Whole song

13,324 views 51 this week
3 commentsread comments
1 2 3 4 5
x 4
add to favorites
launch autoscroll
font size
0
reset
guitar tuner
Autoscroll
slow
fast
+/-
esc
set tempo
stop
Help us to improve Ultimate-Guitar.com Take our survey!
×
Author
G|---|----------------------|-----------------|-----------------|-------|
D|---|*--4:--5--5--3--2-----|-----------------|-----------------|-------|
A|---|*--4:--------------5--|--------2--3--5--|--3--3--1--0-----|--3----|
E|---|----------------------|--3--3-----------|--------------3--|-------|
         Blues

                    G7
G|---------------|-----------------|-----------------|-------------------|
D|---------------|-----------------|--------2--3--4--|--5--5--3--2-------|
A|---3-----------|--------2--3--4--|--5--5-----------|--------------5----|
E|------0--1--2--|--3--3-----------|-----------------|-------------------|

                          C9                                  Gm7
G|---|-----------------|-----------------|-----------------|-------------|
D|---|-----------------|-----------------|-----------------|-------------|
A|---|--------2--3--5--|--3--3--1--0-----|--3--3-----------|-------------|
E|---|--3--3-----------|--------------3--|--------0--1--2--|--3--3--3----|

                    Am7                     Bm7
G|---------------|-----------------------|-----------------------|-------|
D|---------------|-----------------------|-----------------------|-------|
A|---------------|-----------------------|-----------------------|-------|
E|---3--3--3--3--|--5--5--5--5--5--5--5--|--7--7--7--7--7--7--7--|-------|

     A#m7                     Am7                  A#m7
G|------------------------|--------------------|-------------------------|
D|------------------------|--------------------|-------------------------|
A|------------------------|--------------------|-------------------------|
E|---6--6--6--6--6--6--6--|--5--5--5--5--5--5--|--6--6--6--6--6--6--6----|

                    G              C              G              D
G|---------------|--------------|--------------|--------------|-------|
D|------8--8--8--|--------------|-----2--3--5--|--------------|-------|
A|---------------|-----2--3--5--|--3-----------|-----2--3--4--|--5----|
E|---6-----------|--3-----------|--------------|--3-----------|-------|

      (4x)      G7                                              C9
G|----|---------------|-----------|-----------|-----------|-------------|
D|---*|--3:--5--3--2--|-----------|-----------|-----2--3--|-------------|
A|---*|--4:-----------|--5--3--2--|-----2--3--|--5--------|--3--1--0----|
E|----|---------------|-----------|--3--------|-----------|-------------|
         Jazz part

                                            G7
G|---|-----------|-----------|-----------|-----------|-----------|-------|
D|---|-----------|-----------|-----------|-----------|-----2--3--|--5----|
A|---|-----0--1--|--3--------|-----0--1--|-----2--3--|--5--------|-------|
E|---|--3--------|-----0--1--|--3--------|--3--------|-----------|-------|

G|---------|-----------|-----------|-----------|-----------|-------------|
D|---3--2--|-----------|--5--3--2--|-----------|-----------|-----2--3----|
A|---------|--5--3--2--|-----------|--5--3--2--|-----2--3--|--5----------|
E|---------|-----------|-----------|-----------|--3--------|-------------|

        C9
G|---|-----------|-----------|-----------|-----------|-----------|-------|
D|---|-----------|-----------|-----------|-----------|-----------|-------|
A|---|--3--1--0--|-----0--1--|--3--------|-----0--1--|--3--1--0--|-------|
E|---|-----------|--3--------|-----0--1--|--3--------|-----------|--3----|

                                      Gm7                     Am7
G|---------|-----------|-----------|-----------|-----------|-------------|
D|---------|-----------|-----------|-----5--3--|--2--------|-------------|
A|---0--1--|--3--------|-----0--1--|-----------|-----5--3--|-----5--7----|
E|---------|-----0--1--|--3--------|--3--------|-----------|--5----------|

                    Bm7                      A#m7
G|---|-----------|------------|------------|-------------|---------------|
D|---|--4--5--7--|------------|--6--7--9---|---------8---|--6--5---------|
A|---|-----------|-----7--9---|------------|-----8-------|--------8------|
E|---|-----------|--7---------|------------|--6----------|---------------|

        Am7                  A#m7
G|---|--------------------|-----------------------------------|-------|
D|---|--------------------|--------------------------8--8--8--|-------|
A|---|--------------------|-----------------------------------|-------|
E|---|--5--5--5--5--5--5--|--6--6--6--6--6--6--6--6-----------|-------|

            G              C              G              A
G|----------------------|--------------|--------------|------|----------|
D|---4:-----------------|-----2--3--5--|--------------|-----*|----------|
A|---4:--------2--3--5--|--3-----------|-----2--3--4--|--5--*|----------|
E|----------3-----------|--------------|--3-----------|------|----------|


************************************

| *  Natural harmonic
 

************************************
Suggest correction
comments
print report bad tab
3 comments total.
0 reply
EVILxHEMI 269 Mar 19, 2016 09:44 PM

I think you did a great job on this. It was a little hard to pick out the 'swing' of it with the note spacing but it was just exactly what I needed to give me more insight to this song and how to improvise on the rest. After I listened to it a few times, I was able to 'see' exactly what you were expressing. I think it's worth 5 stars. Thanks very much!! :)

0 reply
RushRules2112 30 Mar 20, 2016 05:25 PM

Thanks man, I know its not perfect, but I'm glad you could see what I was going for....

0 reply
EVILxHEMI 269 Mar 22, 2016 02:52 PM

You're welcome! Anytime! :)

guest
You may want to rate the tab now too:
select rating
Wanna post a correction for this tab? Suggest correction