Oops, an error
Loading. Please wait.

Whipping Post Bass Tab

version 2
version 2

Whole song

Interactive

6,671 views 6 this week
1 commentread comment
1 2 3 4 5
x 5
add to favorites
launch autoscroll
font size
0
reset
guitar tuner
Autoscroll
slow
fast
+/-
esc
set tempo
stop
Help us to improve Ultimate-Guitar.com Take our survey!
×
Author
Difficulty
novice
----------------------------------------------------------------------------
			     WHIPPING POST - The Allman Brothers Band
----------------------------------------------------------------------------

Tabbed By : Aquawizard
e-mail: junkofmythought@gmail.com

Tuning: Standard


 *Note -- For the break right before the solos play
          the intro a couple of times. Then for the
          solo play the verse.   


    INTRO
G|-------------------------------------------------------------------------|
D|-------------------------------------------------------------------------|
A|-----------------------------------5--3----------------------------------|
E|--3--5--3--5--3--5--3--5--3--5--3----------------------------------------|


    VERSE
G|-------------------------------------------------------------------------|
D|--77--77----------77--77--5----------------------------------------------|
A|-----------------------------7--5----------------------------------------|
E|----------55--55-------------------8-------------------------------------|


    CHORUS
G|-------------------------------------------------------------------------|
D|-----------------------------------------4-4-4--5-5-5--6-6-6-------------|
A|--0--3--4--5--5--5---5--5---5--6--7---7----------------------------------|
E|-------------------5------5---------0------------------------------------|

G|---------5--6------------------------------------------------------------|
D|--7---7--------7----------5--6-------------------------------------------|
A|----0-------------5------------------------------------------------------|
E|-----------------------8-------------------------------------------------|


    BRIDGE
G|-------------------------------------------------------------------------|
D|------------------------------22-22--44-44--55-55------------------------|
A|--00-00--22-22--33-33--55-55---------------------------------------------|
E|-------------------------------------------------------------------------|

G|--22-22--44-44--55-55--77-77--99-99--1111-1111--1212-1212--1313--1313-14-|
D|-------------------------------------------------------------------------|
A|-------------------------------------------------------------------------|
E|-------------------------------------------------------------------------|

G|-------------------------------------------------------------------------|
D|-------------------------------------------------------------------------|
A|--0--0---2--2---3--3---2--2----0--0---2--2---3--3---2--2-----------------|
E|-------------------------------------------------------------------------|


| /  slide up
| \  slide down
| h  hammer-on
| p  pull-off
| ~  vibrato
| +  harmonic
| x  Mute note
============================================================================
Suggest correction
comments
print report bad tab
1 comment total.
0 reply
erind99 10 May 21, 2014 09:52 PM

Not sure that's how I would tab the intro, but the rest seems pretty good!

guest
You may want to rate the tab now too:
select rating
Wanna post a correction for this tab? Suggest correction