Oops, an error
Loading. Please wait.

Whipping Post bass

version 3
version 3

Whole song

Interactive

272 views 3 this week
no commentswrite comment
1 2 3 4 5
3 more votes to show rating
add to favorites
×
Save as Personal and add changes to this tab that will be seen only by you. Learn more ›
×
You can save this tab as Personal to edit and correct it or add notes. All changes will be seen only by you. Learn more »
launch autoscroll
font size
0
reset
guitar tuner
backing track
0:00
0:00
edit
Autoscroll
slow
fast
+/-
esc
set tempo
stop
Author
Difficulty
Listen to the song for the order/number of times each section is played.  Enjoy!

Yes, it had to be tabbed as a 5-string bass.  See bottom section.  It still sounds fine on a 4 string, 
though, if you can find some other way of hitting that low 'C'

Intro:
G|-------------------------------------|
D|-------------------------------------|
A|-------------------------------5-3---| (amount played changes)
E|-5-5p3h5p3h5-5p3h5p3h5-5p3h5p3-------|
B|-------------------------------------|

Verse:
"I've been run down..."
G|-------------------------------------|
D|-77-77----------77-77-5--------------|
A|-------0-0000-----------7-5----------| (amount played changes)
E|----------------------------8--------|
B|-------------------------------------|

Chorus:
"Sometimes I feel..."
G|-------------------------------------|
D|-------------------------------------|
A|------4-5-5-5-5-5-5-5-5-5-5-5-5------|
E|--5-8--------------------------------|
B|-------------------------------------|

G|-------------------------------------|
D|-----------4-4-4-5-5-5-6-6-6---------|
A|-5-6-7-7-7---------------------------|
E|-------------------------------------|
B|-------------------------------------|

"Like I've been tied to the whipping post..."
G|-------4-5---------------------------|
D|-7-7-7-----7-------4-5-6-------------|
A|-------------5-5-5-------------------| x3
E|-------------------------------------|
B|-------------------------------------|

"Good lord I feel like I'm dyin'..."
G|-------------------------------------|
D|-------------------------------------|
A|-------------------------------------|
E|--8----------------------------------|
B|-------------------------1-----------|

Repeats all

            
            
Suggest correction
Creating personal tab
Creating personal tab
You can edit any tab online and save it as your Personal.

You can edit, replace or remove any tab part or add personal notes – all changes will be seen only by you.

Personal tabs can be accessed anytime from any device, even offline.
Learn more »
Give kudos to tab author, rate the tab!
1 2 3 4 5
comments
print report bad tab
guest
You may want to rate the tab now too:
select rating
Wanna post a correction for this tab? Suggest correction