Oops, an error
Loading. Please wait.

Amazing Because It Is Tab

version 1
version 1

Whole song

Interactive

27,209 views 1 this week
2 commentsread comments
1 2 3 4 5
worth learning
x 3
add to favorites
launch autoscroll
font size
0
reset
how to read this tab
guitar tuner
Tab Pro tools
  • play this tab
  • loop segment
  • change instrument
  • show fretboard
  • metronome
Autoscroll
slow
fast
+/-
esc
set tempo
stop
Contributor
Difficulty
e----00000---0000--------------|
B----00000---0000--------------|
G----66666---2222--------------|
D----66666---2222--------------|
A----44444---0000--------------|
E------------------------------|

Repeat this until Chorus

e--000--000--000--000------------------------------------------------|
B--000--000--000--000------------------------------------------------|
G--111--444--666--222------------------------------------------------|
D--222--444--666--222------------------------------------------------|
A--222--222--444--000------------------------------------------------|
E--000---------------------------------------------------------------|


That's all. The rhythm of the chorus changes up sometimes, but you can figure it out.
comments
We did not receive enough feedback on this tab! Please rate:
print report bad tab
1 2 3 4 5
2 comments total.
0 reply
erijasoro wrote on November 13 2008, 09:44 pm

THIS IS THE CORRECT TAB DUDES!

READ!!!! IMPORTANT!!!

ok, this song is very easy. theres a few things u should know first! the numbers under the tab is how you should count in your head everytime you strum. (once u get better u wont have to count.) you basically just count one two three four in most parts. under that i'll have the strumming pattern! D is for Down and U is for Up. everytime there is an H under the strumming pattern you strum a little HARDER.



INTRO ( play this hard foo!!!!)

e 0---0-------0-0-0 -----------------
b 0-0-0-0-0-0-0-0-0 ----0-------0-0-0
g 8-8-8-8-8-8-8-8-8 8-8-8-8-8-8-8-8-8
d 9-9-9-9-9-9-9-9-9 9-9-9-9-9-9-9-9-9
a 9-9-9-9-9-0-0-0-0 x-x-x-x-x-0-0-0-0
e ----------------- 9-9-9-9-9-0-0-0-0
1 2 3 4 1 2 3 4 1 2 3 4 1 2 3 4

0 reply
erijasoro wrote on November 13 2008, 09:45 pm

THIS IS THE CORRECT TAB DUDES!

READ!!!! IMPORTANT!!!

ok, this song is very easy. theres a few things u should know first! the numbers under the tab is how you should count in your head everytime you strum. (once u get better u wont have to count.) you basically just count one two three four in most parts. under that i'll have the strumming pattern! D is for Down and U is for Up. everytime there is an H under the strumming pattern you strum a little HARDER.



INTRO ( play this hard foo!!!!)

e 0---0-------0-0-0 -----------------
b 0-0-0-0-0-0-0-0-0 ----0-------0-0-0
g 8-8-8-8-8-8-8-8-8 8-8-8-8-8-8-8-8-8
d 9-9-9-9-9-9-9-9-9 9-9-9-9-9-9-9-9-9
a 9-9-9-9-9-0-0-0-0 x-x-x-x-x-0-0-0-0
e ----------------- 9-9-9-9-9-0-0-0-0
1 2 3 4 1 2 3 4 1 2 3 4 1 2 3 4

I want to post or [tab]
guest
You may want to rate the tab now too:
select rating
Please do not post tabs as comments. Select "correction" instead!