Oops, an error
Loading. Please wait.

Amazing Because It Is Bass Tab

version 2
version 2

Whole song

Interactive

2,476 views 1 this week
no commentswrite comment
1 2 3 4 5
x 3
add to favorites
launch autoscroll
font size
0
reset
guitar tuner
Autoscroll
slow
fast
+/-
esc
set tempo
stop
Help us to improve Ultimate-Guitar.com Take our survey!
×
Difficulty
novice
2:59
G--------------------------------------------------------------------------|
D--------------------------------------------------------------------------|
A--------------------------------------------------------------------------|
E 5-5-5----5-5-5-----------------------------------------------------------|

G--------------------------------------------------------------------------|
D--------------------------------------------------------------------------|
A-----------------2-2-2-2-2-2-2-2-4-4-4-4-4-4-4-4--------------------------|
E 0-0-0-0-0-0-0-0---------------------------------5-5-5-5-5-5-5-5----------|
---------------------------------------------------------------------------|

G--------------------------------------------------------------------------|
D--------------------------------------------------------------------------|
A-----------------2-2-2-2-2-2-2-2-4-4-4-4-4-4-4-4--------------------------|
E 0-0-0-0-0-0-0-0---------------------------------5-5-5-5-5-5-5-5----------|
---------------------------------------------------------------------------|

G--------------------------------------------------------------------------|
D--------------------------------------------------------------------------|
A-----------------2-2-2-2-4-4-6-6-4-4-6-6-7-7------------------------------|
E 0-0-0-0-0-0-0-0-----------------------------5-5-0------------------------|
---------------------------------------------------------------------------|

G--------------------------------------------------------------------------|
D--------------------------------------------------------------------------|
A-----------------2-2-2-2-4-4-6-6-4-4-6-6-7-7------------------------------|
E 0-0-0-0-0-0-0-0-----------------------------5-5--------------------------|
---------------------------------------------------------------------------|
Suggest correction
Give kudos to tab author, rate the tab!
1 2 3 4 5
comments
print report bad tab
guest
You may want to rate the tab now too:
select rating
Wanna post a correction for this tab? Suggest correction