Oops, an error
Loading. Please wait.

Amazing Because It Is Tab

version 3
version 3

Whole song

Interactive

15,462 views 1 this week
2 commentsread comments
1 2 3 4 5
accurate
x 8
add to favorites
launch autoscroll
font size
0
reset
how to read this tab
guitar tuner
Tab Pro tools
  • play this tab
  • loop segment
  • change instrument
  • show fretboard
  • metronome
×
Best way to learn
"Amazing Because It Is"
Autoscroll
slow
fast
+/-
esc
set tempo
stop
Contributor
Difficulty
novice
Band: The Almost
Album: Southern Weather
Song: Amazing because It Is

If you have any questions, comments, or corrections...
email me at jtc679@yahoo.com


Standard Tuning

Intro
00:00-01:04
I was so scared of everything you put in front of me
I've been marching to every part of me Just to see... See Why you need me to be...The boy you need me to be
e|-0-----------------------------------------|
B|-0-----------------------------------------|
G|-9-----------------------------------------|
D|-9-----------------------------------------| Figure out strumming.
A|-7-----------------------------------------|
E|-9-----------------------------------------|


01:05-01:29
Amazing grace. How sweet the sound. That saves a wretch like me
I once was lost. And now I'm found. Was blind but now I see
e|-0-----0-----0-----0----------------------------|
B|-0-----0-----0-----5----------------------------|
G|-1-----4-----6-----6----------------------------|
D|-2-----4-----6-----6----------------------------| Figure out strumming.
A|-2-----2-----4-----0----------------------------|
E|-0-----x-----x-----0----------------------------|



01:30-02:34
I just wanna see. I'm the type of person who lets fear drive
I'm the type of guy that's in drive. Cause I'm addicted. I'm needy.
I'm lost without you. I need you. I need you
e|-0-----------------------------------------|
B|-0-----------------------------------------|
G|-9-----------------------------------------|
D|-9-----------------------------------------| Figure out strumming.
A|-7-----------------------------------------|
E|-9-----------------------------------------|


02:35-02:59(With Choir)
Amazing grace. How sweet the sound. That saves a wretch like me
I once was lost. But now I'm found. Was blind but now I see
e|-0-----0-----0-----0----------------------------|
B|-0-----0-----0-----5----------------------------|
G|-1-----4-----6-----6----------------------------|
D|-2-----4-----6-----6----------------------------| Figure out strumming.
A|-2-----2-----4-----0----------------------------|
E|-0-----x-----x-----0----------------------------|


03:00-04:24(With Choir)
Amazing grace (amazing grace). How sweet the sound (how sweet)
That saves a wretch like me (that saved a wretch like me)
I once was lost. But now I'm found (you know I'm found)
Was blind but now I see
e|-0-----0-----0-----0----------------------------|
B|-0-----0-----0-----5----------------------------| x2 
G|-1-----4-----6-----6----------------------------|
D|-2-----4-----6-----6----------------------------| Figure out strumming.
A|-2-----2-----4-----0----------------------------| (different than earlier 
E|-0-----x-----x-----0----------------------------|  strumming)


There you go...
im pretty sure its correct...
questions, comments, corrections, critisim...
email me at jtc679@yahoo.com

thanks...

peace.

comments
print report bad tab
2 comments total.
0 reply
philphong wrote on August 2 2007, 12:39 am

the chorus seems right....verse isnt though

0 reply
mark!!! wrote on May 20 2008, 10:45 pm

e|-0--0--0--0--------------------------------|
B|-0--0--0--0--------------------------------|
G|-8--8--8--8--------------------------------|
D|-9--9--9--9--------------------------------|
A|-x--0--x--0--------------------------------|
E|-9--x--7--x--------------------------------|

he uses these chords for the verse. just figure out the timing, when to play the bass note and strum and whatever

I want to post or [tab]
guest
You may want to rate the tab now too:
select rating
Please do not post tabs as comments. Select "correction" instead!