Oops, an error
Loading. Please wait.

Amazing Because It Is Tab

version 5
version 5

Whole song

Interactive

68,924 views 15 this week
9 commentsread comments
1 2 3 4 5
excellent!
x 32
add to favorites
launch autoscroll
font size
0
reset
how to read this tab
guitar tuner
Autoscroll
slow
fast
+/-
esc
set tempo
stop
Help us to improve Ultimate-Guitar.com Take our survey!
×
Author
Amazing because it is - The Almost
-----------------------------------------------------------------------
Tabbed by: hi_it's_me!

Tuning: standard

Intro/Riff

e|-0-0-0-0-0-0-0-0-0-0-0-0-0-0-0-0-0-0--| 2
B|-0-0-0-0-0-0-0-0-0-0-0-0-0-0-0-0-0-0--| T
G|-8-8-8-8-8-8-8-8-8-8-8-8-8-8-8-8-8-8--| I
D|-9-9-9-9-9-9-9-9-9-9-9-9-9-9-9-9-9-9--| M
A|-9-9-9-9-9-0-0-0-0-x-x-x-x-x-0-0-0-0--| E
E|-------------------9-9-9-9-9----------| S
   v v v v v v v v ^ v v v v v v v v ^

Verse (This is roughly how the struming goes)
e|-----0-------0-0-0-----0-------0-0-0--|
B|-----0-------0-0-0-----0-------0-0-0--|
G|-----8-------8-8-8-----8-------8-8-8--|
D|-9-9-9-9-9-9-9-9-9-9-9-9-9-9-9-9-9-9--|
A|-x-x-x-x-x-0-0-0-0-x-x-x-x-x-0-0-0-0--|
E|-9-9-9-9-9---------7-7-7-7-7----------|
   v v v v v v v v ^ v v v v v v v v ^

Chorus (figue out strumming)
e|-0----0----0----0----0----0----0----0--|
B|-0----0----0----0----0----0----0----0--|
G|-1----4----6----2----1----4----6----2--|
D|-2----4----6----2----2----4----6----2--|
A|-2----2----4----0----2----2----4----0--|
E|-0-------------------0-----------------|

Back to Intro/Riff

Verse

Chorus (different)
e|-0----0----0----0----0----0----0----0--|
B|-0----0----0----0----0----0----0----0--|
G|-1----4----6----6----1----4----6----6--|
D|-2----4----6----6----2----4----6----6--|
A|-2----2----4----0----2----2----4----0--|
E|-0-------------------0-----------------|


Then this part (electric)

e|-0-0-0---0-0-0--|
B|-0-0-0---0-0-0--|
G|-2-2-2---2-2-2--|
D|-2-2-2---2-2-2--|
A|-0-0-0---0-0-0--|
E|----------------|

Chorus acoustic and electric.
e|-0----0----0----0----0----0----0----0--|
B|-0----0----0----0----0----0----0----0--|
G|-1----4----6----2----1----4----6----2--|
D|-2----4----6----2----2----4----6----2--|
A|-2----2----4----0----2----2----4----0--|
E|-0-------------------0-----------------|

That's it! Enjoy and God bless!
Suggest correction
What's this?
You can suggest a correction to this tab. Community and Mods will review your correction and vote to approve or reject it.
comments
print report bad tab
9 comments total. Showing first comments.
0 reply
joshme17 213 wrote on June 11 2009, 12:06 pm

Awesome! Thanks, I think this is the best tab for this song. :)

0 reply
xxj0g101xx 65 wrote on June 16 2009, 02:19 pm

the best tab for this song

0 reply
nakyy 11 wrote on July 17 2009, 08:49 pm

thank you so much. all the other tabs sucks. you're awesome man! =D

guest
You may want to rate the tab now too:
select rating
Please do not post tabs as comments. Select "correction" instead!