Oops, an error
Loading. Please wait.

Books Books Tab

646 views 3 this week
no commentswrite comment
1 2 3 4 5
please rate
add to favorites
launch autoscroll
font size
0
reset
how to read this tab
guitar tuner
Tab Pro tools
  • play this tab
  • loop segment
  • change instrument
  • show fretboard
  • metronome
Autoscroll
slow
fast
+/-
esc
set tempo
stop
Contributor
Artist: The Almost
Song: Books & Books
Album: Monster Monster
Tabbed By: Matt Florio; myspace.com/mattflorio2
email: shempashland@yahoo.com

Intro
*these are 11's not 1's
e|-----------------------------------------|
b|-----------------------------------------|
g|-----------------------------------------|
d|-----------------------------------------|
a|-----------------------------------------|
d|--7-*111111-11111111-7777-11111111-7777--|


e|------------------------------------|
b|------------------------------------|
g|------------------------------------|
d|--9999-5555-2222-7777-9999-5555-----|
a|--9999-5555-2222-7777-9999-5555-----|
d|--9999-5555-2222-7777-9999-5555-2b--|

e|------------------------|
b|------------------------|
g|-11-9-11-14-11-9-11-6b--|
d|--x-x--x--x--x-x--x-xb--|
a|--9-7--9-12--9-7--9-4b--|
d|------------------------|


Verse
*mainly bass and feedback

Prechorus
e|-------------------|
b|-------------------|
g|--7-7-7-7-7-7-7-7--|
d|--5-5-5-5-5-5-5-5--|
a|--5-5-5-5-5-5-5-5--|
d|--5-5-5-5-5-5-5-5--|

Chorus
e|--000000--------000000-000000--|
b|--333333--------000000-000000--|
g|--222222--------444444-222222--|
d|--000000-222222-444444-222222--|
a|--000000-222222-222222-000000--|
d|--000000-222222----------------|

Verse 2
e|-------------|
b|-------------|
g|--4---2------|
d|--4---2---2--|
a|--2---0---2--|
d|----------2--|
PM

Prechorus
Chorus

Bridge
e|-------------|-------------|
b|-------------|-------------|
g|-------------|--5555-8888--|
d|--2-4-5-9-7--|--5555-8888--|
a|--2-4-5-9-7--|--3333-6666--|
d|--2-4-5-9-7--|-------------|

Chorus

Outro
e|------------------------|
b|------------------------|
g|------------------------|
d|--99p0-99/12-99p0-99/12-|
a|--99p0-99/12-99p0-99/12-|
d|--99p0-99/12-99p0-99/12-|
comments
We did not receive enough feedback on this tab! Please rate:
print report bad tab
1 2 3 4 5
I want to post or [tab]
guest
You may want to rate the tab now too:
select rating
Please do not post tabs as comments. Select "correction" instead!