Oops, an error
Loading. Please wait.

Call Me Back When Im Honest Tab

version 2
version 2

Whole song

658 views 1 this week
no commentswrite comment
1 2 3 4 5
please rate
add to favorites
launch autoscroll
font size
0
reset
how to read this tab
guitar tuner
Tab Pro tools
  • play this tab
  • loop segment
  • change instrument
  • show fretboard
  • metronome
Autoscroll
slow
fast
+/-
esc
set tempo
stop
Difficulty
Tuning
novice
D A D G B E
my first tab, please rate =]
i'm not sure if it's 100% accurate but hey, close enough

Intro 2X
e|-------------------------------------------------------------|
B|-9-0-7-0-5-0-7-0-9-0-7-0-5-0-7-0-9-0-7-0-5-0-7-0-5-0-7-5b6b5-|
G|-------------------------------------------------------------|
D|-------------------------------------------------------------|
A|-------------------------------------------------------------|
D|-------------------------------------------------------------|

verse
e|-------------------------------------------------------------|
B|-------------------------------------------------------------|
G|-7--7--7---7-7-----------------------------------------------|
D|-7--7--7---7-7----7--7--7---8-8-8----------------------------|
A|-5--5--5---5-5----7--7--7---8-8-8----------------------------|
D|------------------7--7--7---8-8-8----------------------------|

e|-------------------------------------------------------------|
B|-------------------------------------------------------------|
G|-7--7--7---7-7-----------------------------------------------|
D|-7--7--7---7-7----7--7--7---8-8-8-8-8-8-8-8------------------|
A|-5--5--5---5-5----7--7--7---8-8-8-8-8-8-8-8------------------|
D|------------------7--7--7---8-8-8-8-8-8-8-8------------------|

e|---------------------------------------------------------------------|
B|---------------------------------------------------------------------|
G|-7-7-7-7-7-7-7-7--5-5-5-5-5-5-5-5------------------------------------| 2X
D|-7-7-7-7-7-7-7-7--5-5-5-5-5-5-5-5--7-7-7-7-7-7-7-7--8-8-8-8-8-8-8-8--| 
A|-5-5-5-5-5-5-5-5--3-3-3-3-3-3-3-3--7-7-7-7-7-7-7-7--8-8-8-8-8-8-8-8--|
D|-----------------------------------7-7-7-7-7-7-7-7--8-8-8-8-8-8-8-8--|

pre chorus
e|-------------------------------------------------------------|
B|-------------------------------------------------------------|
G|-------------------------------------------------------------|
D|-0-0-0---2-2--2-2--------------------------------------------|
A|-0-0-0---2-2--2-2--------------------------------------------|
D|-0-0-0---2-2--2-2--------------------------------------------|

Chorus
e|-------------------------------------------------------------|
B|-------------------------------------------------------------|
G|-------------------------------------------------------------|
D|-3-3-3-3-3-3-3-3--1-1-1-1-1-1-1-1--8-8-8-8-8-8-8-8-----------|
A|-3-3-3-3-3-3-3-3--1-1-1-1-1-1-1-1--8-8-8-8-8-8-8-8-----------|
D|-3-3-3-3-3-3-3-3--1-1-1-1-1-1-1-1--8-8-8-8-8-8-8-8-----------|

e|-------------------------------------------------------------|
B|-------------------------------------------------------------|
G|-------------------------------------------------------------|
D|-2-2-2-2-2-2-2-2-2-2-2-2-2-2-2-2-----------------------------|
A|-2-2-2-2-2-2-2-2-2-2-2-2-2-2-2-2-----------------------------|
D|-2-2-2-2-2-2-2-2-2-2-2-2-2-2-2-2-----------------------------|

*intro 2X
*verse
*pre chorus

2nd chorus
e|---------------------------------------------------------------------|
B|---------------------------------------------------------------------|
G|---------------------------------------------------------------------|
D|-3-3-3-3-3-3-3-3-3-3-3-3-3-3-3-3--1-1-1-1-1-1-1-1-1-1-1-1-1-1-1-1----|
A|-3-3-3-3-3-3-3-3-3-3-3-3-3-3-3-3--1-1-1-1-1-1-1-1-1-1-1-1-1-1-1-1----|
D|-3-3-3-3-3-3-3-3-3-3-3-3-3-3-3-3--1-1-1-1-1-1-1-1-1-1-1-1-1-1-1-1----|

e|---------------------------------------------------------------------|
B|---------------------------------------------------------------------|
G|---------------------------------------------------------------------|
D|-8-8-8-8-8-8-8-8-8-8-8-8-8-8-8-8-8-8-8-8-8-8-8-8--2-2-2-2-2-2-2-2----|
A|-8-8-8-8-8-8-8-8-8-8-8-8-8-8-8-8-8-8-8-8-8-8-8-8--2-2-2-2-2-2-2-2----|
D|-8-8-8-8-8-8-8-8-8-8-8-8-8-8-8-8-8-8-8-8-8-8-8-8--2-2-2-2-2-2-2-2----|

e|---------------------------------------------------------------------|
B|---------------------------------------------------------------------|
G|---------------------------------------------------------------------|
D|-3-3-3-3-3-3-3-3-3-3-3-3-3-3-3-3--1-1-1-1-1-1-1-1-1-1-1-1-1-1-1-1----|
A|-3-3-3-3-3-3-3-3-3-3-3-3-3-3-3-3--1-1-1-1-1-1-1-1-1-1-1-1-1-1-1-1----|
D|-3-3-3-3-3-3-3-3-3-3-3-3-3-3-3-3--1-1-1-1-1-1-1-1-1-1-1-1-1-1-1-1----|

e|---------------------------------------------------------------------|
B|---------------------------------------------------------------------|
G|---------------------------------------------------------------------|
D|-8-8-8-8-8-8-8-8-8-8-8-8-8-8-8-8--2-2-2-2-2-2-2-2-2-2-2-2-2-2-2-2----|
A|-8-8-8-8-8-8-8-8-8-8-8-8-8-8-8-8--2-2-2-2-2-2-2-2-2-2-2-2-2-2-2-2----|
D|-8-8-8-8-8-8-8-8-8-8-8-8-8-8-8-8--2-2-2-2-2-2-2-2-2-2-2-2-2-2-2-2----|

bridge 2X
e|---------------------------------------------------------------------|
B|---------------------------------------------------------------------|
G|---------------------------------------------------------------------|
D|-0-0-2/3-3-3-3-3-3---8-8-8-8-8-8-8-8-8-8-8-8-8-8-8-8-----------------|
A|-0-0-2/3-3-3-3-3-3---8-8-8-8-8-8-8-8-8-8-8-8-8-8-8-8-----------------|
D|-0-0-2/3-3-3-3-3-3---8-8-8-8-8-8-8-8-8-8-8-8-8-8-8-8-----------------|

e|---------------------------------------------------------------------|
B|---------------------------------------------------------------------|
G|---------------------------------------------------------------------|
D|-0-0-2/3-3-3-3-3-3---1-1-1-1-1-1-1-1-1-1-1-1-1-1-1-1-----------------|
A|-0-0-2/3-3-3-3-3-3---1-1-1-1-1-1-1-1-1-1-1-1-1-1-1-1-----------------|
D|-0-0-2/3-3-3-3-3-3---1-1-1-1-1-1-1-1-1-1-1-1-1-1-1-1-----------------|

bridge continued
e|---------------------------------------------------------------------|
B|---------------------------------------------------------------------|
G|---------------------------------------------------------------------|
D|-0-0-1-1-1-1-1-1-1-1-1-1-1-1-1-1-1-1---------------------------------|
A|-0-0-1-1-1-1-1-1-1-1-1-1-1-1-1-1-1-1---------------------------------|
D|-0-0-1-1-1-1-1-1-1-1-1-1-1-1-1-1-1-1---------------------------------|

verse 3
e|---------------------------------------------------------------------|
B|---------------------------------------------------------------------|
G|---------------------------------------------------------------------|
D|-8-8-8-8-8-8-8-8-8-8-8-8-8-8-8-8-8-8-8-8-8-8-8-8--2-2-2-2-2-2-2-2----|
A|-8-8-8-8-8-8-8-8-8-8-8-8-8-8-8-8-8-8-8-8-8-8-8-8--2-2-2-2-2-2-2-2----|
D|-8-8-8-8-8-8-8-8-8-8-8-8-8-8-8-8-8-8-8-8-8-8-8-8--2-2-2-2-2-2-2-2----|

e|---------------------------------------------------------------------|
B|---------------------------------------------------------------------|
G|---------------------------------------------------------------------|
D|-3-3-3-3-3-3-3-3-3-3-3-3-3-3-3-3--1-1-1-1-1-1-1-1-1-1-1-1-1-1-1-1----|
A|-3-3-3-3-3-3-3-3-3-3-3-3-3-3-3-3--1-1-1-1-1-1-1-1-1-1-1-1-1-1-1-1----|
D|-3-3-3-3-3-3-3-3-3-3-3-3-3-3-3-3--1-1-1-1-1-1-1-1-1-1-1-1-1-1-1-1----|

e|---------------------------------------------------------------------|
B|---------------------------------------------------------------------|
G|---------------------------------------------------------------------|
D|-8-8-8-8-8-8-8-8-8-8-8-8-8-8-8-8-8-8-8-8-8-8-8-8--2-2-2-2-2-2-2-2----|
A|-8-8-8-8-8-8-8-8-8-8-8-8-8-8-8-8-8-8-8-8-8-8-8-8--2-2-2-2-2-2-2-2----|
D|-8-8-8-8-8-8-8-8-8-8-8-8-8-8-8-8-8-8-8-8-8-8-8-8--2-2-2-2-2-2-2-2----|

e|---------------------------------------------------------------------|
B|---------------------------------------------------------------------|
G|---------------------------------------------------------------------|
D|-3-3-3-3-3-3-3-3--1-1-1-1-1-1-1-1--8-8-8-8-8-8-8-8-8-8-8-8--2-2-2-2--|
A|-3-3-3-3-3-3-3-3--1-1-1-1-1-1-1-1--8-8-8-8-8-8-8-8-8-8-8-8--2-2-2-2--|
D|-3-3-3-3-3-3-3-3--1-1-1-1-1-1-1-1--8-8-8-8-8-8-8-8-8-8-8-8--2-2-2-2--|

e|------------------------------------------------------------------------
B|------------------------------------------------------------------------
G|------------------------------------------------------------------------
D|-3-3-3-3-3-3-3-3--1-1-1-1-1-1-1-1--8-8-8-8-8-8-8-8---2-2-2-2-2-2-3-3-3~~
A|-3-3-3-3-3-3-3-3--1-1-1-1-1-1-1-1--8-8-8-8-8-8-8-8---2-2-2-2-2-2-3-3-3~~
D|-3-3-3-3-3-3-3-3--1-1-1-1-1-1-1-1--8-8-8-8-8-8-8-8---2-2-2-2-2-2-3-3-3~~



comments
We did not receive enough feedback on this tab! Please rate:
print report bad tab
1 2 3 4 5
I want to post or [tab]
guest
You may want to rate the tab now too:
select rating
Please do not post tabs as comments. Select "correction" instead!