Oops, an error
Loading. Please wait.

Dirty And Left Out Tab

version 1
version 1

Intro

Whole song

8,492 views 1 this week
3 commentsread comments
1 2 3 4 5
1 last vote to show rating
add to favorites
launch autoscroll
font size
0
reset
how to read this tab
guitar tuner
Autoscroll
slow
fast
+/-
esc
set tempo
stop
Help us to improve Ultimate-Guitar.com Take our survey!
×
Author
Difficulty
novice
thats the chords to the intro. and you can find the strumming patern on your own.:]

e-------------------------------------------------------------|
B-----3-------3-------3---------------------------------------|
G-----0-------0-------0---------------------------------------|
D-----0-------0-------2---------------------------------------|
A-----3-------2-------0---------------------------------------|
E-------------------------------------------------------------|
Suggest correction
Give kudos to tab author, rate the tab!
1 2 3 4 5
comments
print report bad tab
3 comments total.
0 reply
OKrocker 10 Jul 31, 2007 11:12 PM

this sucks

0 reply
chillhaxx 10 Apr 20, 2008 08:12 PM

This is pretty good

0 reply
chillhaxx 10 Apr 20, 2008 08:14 PM

e-----x-------x-------x-----------|
B-----3-------3-------3-----------|
G-----0-------0-------0-----------|
D-----x-------x-------2-----------|
A-----3-------2-------0-----------|
E-----x-------x-------x-----------|

guest
You may want to rate the tab now too:
select rating
Wanna post a correction for this tab? Suggest correction