Oops, an error
Loading. Please wait.

Dirty And Left Out Tab

version 1
version 1

Whole song

12,247 views 1 this week
5 commentsread comments
1 2 3 4 5
x 6
add to favorites
launch autoscroll
font size
0
reset
how to read this tab
guitar tuner
Autoscroll
slow
fast
+/-
esc
set tempo
stop
Help us to improve Ultimate-Guitar.com Take our survey!
×
Author
Difficulty
novice
This song is played in Drop D and to the same strumming pattern throughout the song.

Intro

E------------------------------------------------|
B-3--3-3-3-3--3--3-3-3-3--3--3-3-3-3--3--3-3-3-3-|
G-x--x-x-x-x--2--2-2-2-2--2--2-2-2-2--2--2-2-2-2-|
D-2--2-2-2-2--x--x-x-x-x--2--2-2-2-2--2--2-2-2-2-|
A-3--3-3-3-3--2--2-2-2-2--2--2-2-2-2--2--2-2-2-2-|
D-------------------------2--2-2-2-2--2--2-2-2-2-|
  d  d u d u  d  d u d u  d  d u d u  d  d u d u 

E------------------------------------------------|
B-3--3-3-3-3--3--3-3-3-3--3--3-3-3-3--3--3-3-3-3-|
G-x--x-x-x-x--2--2-2-2-2--2--2-2-2-2--2--2-2-2-2-|
D-2--2-2-2-2--x--x-x-x-x--2--2-2-2-2--2--2-2-2-2-|
A-3--3-3-3-3--2--2-2-2-2--2--2-2-2-2--2--2-2-2-2-|
D-------------------------2--2-2-2-2--2--2-2-2-2-|
  d  d u d u  d  d u d u  d  d u d u  d  d u d u 
 

Verse 1 (Play lighter than Intro.)


Hello, I swear I won't be too long
E------------------------------------------------|
B-3--3-3-3-3--3--3-3-3-3--3--3-3-3-3--3--3-3-3-3-|
G-x--x-x-x-x--2--2-2-2-2--2--2-2-2-2--2--2-2-2-2-|
D-2--2-2-2-2--x--x-x-x-x--2--2-2-2-2--2--2-2-2-2-|
A-3--3-3-3-3--2--2-2-2-2--2--2-2-2-2--2--2-2-2-2-|
D-------------------------2--2-2-2-2--2--2-2-2-2-|
  d  d u d u  d  d u d u  d  d u d u  d  d u d u

Hello, I promise I'll be real strong
E------------------------------------------------|
B-3--3-3-3-3--3--3-3-3-3--3--3-3-3-3--3--3-3-3-3-|
G-x--x-x-x-x--2--2-2-2-2--2--2-2-2-2--2--2-2-2-2-|
D-2--2-2-2-2--x--x-x-x-x--2--2-2-2-2--2--2-2-2-2-|
A-3--3-3-3-3--2--2-2-2-2--2--2-2-2-2--2--2-2-2-2-|
D-------------------------2--2-2-2-2--2--2-2-2-2-|
  d  d u d u  d  d u d u  d  d u d u  d  d u d u 

Wait up, I just wanna tell you
E------------------------------------------------|
B-3--3-3-3-3--3--3-3-3-3--3--3-3-3-3--3--3-3-3-3-|
G-x--x-x-x-x--2--2-2-2-2--2--2-2-2-2--2--2-2-2-2-|
D-2--2-2-2-2--x--x-x-x-x--2--2-2-2-2--2--2-2-2-2-|
A-3--3-3-3-3--2--2-2-2-2--2--2-2-2-2--2--2-2-2-2-|
D-------------------------2--2-2-2-2--2--2-2-2-2-|
  d  d u d u  d  d u d u  d  d u d u  d  d u d u 

Hold up, why are you still here?
E------------------------------------------------|
B-3--3-3-3-3--3--3-3-3-3--3~~--------------------|
G-x--x-x-x-x--2--2-2-2-2--2~~--------------------|
D-2--2-2-2-2--x--x-x-x-x--0~~--------------------|
A-3--3-3-3-3--2--2-2-2-2--0~~--------------------|
D-------------------------0~~--------------------|
  d  d u d u  d  d u d u  d


Chorus


I've been dirtier...
E------------------------------------------------|
B------------------------------------------------|
G------------------------------------------------|
D-5--5-5-5-5--5--5-5-5-5--2--2-2-2-2--2--2-2-2-2-|
A-5--5-5-5-5--5--5-5-5-5--2--2-2-2-2--2--2-2-2-2-|
D-5--5-5-5-5--5--5-5-5-5--2--2-2-2-2--2--2-2-2-2-| 
  d  d u d u  d  d u d u  d  d u d u  d  d u d u 

...than you wanna know.
E------------------------------------------------|
B-3--3-3-3-3--3--3-3-3-3--3--3-3-3-3--3--3-3-3-3-|
G-2--2-2-2-2--2--2-2-2-2--x--x-x-x-x--x--x-x-x-x-|
D-0--0-0-0-0--0--0-0-0-0--2--2-2-2-2--2--2-2-2-2-|
A-------------------------3--3-3-3-3--3--3-3-3-3-|
D------------------------------------------------| 
  d  d u d u  d  d u d u  d  d u d u  d  d u d u 

I've left earlier...
E------------------------------------------------|
B------------------------------------------------|
G------------------------------------------------|
D-5--5-5-5-5--5--5-5-5-5--2--2-2-2-2--2--2-2-2-2-|
A-5--5-5-5-5--5--5-5-5-5--2--2-2-2-2--2--2-2-2-2-|
D-5--5-5-5-5--5--5-5-5-5--2--2-2-2-2--2--2-2-2-2-| 
  d  d u d u  d  d u d u  d  d u d u  d  d u d u 

...than you'll ever know.
E------------------------------------------------|
B-3--3-3-3-3--3--3-3-3-3--3--3-3-3-3--3--3-3-3-3-|
G-2--2-2-2-2--2--2-2-2-2--x--x-x-x-x--x--x-x-x-x-|
D-0--0-0-0-0--0--0-0-0-0--2--2-2-2-2--2--2-2-2-2-|
A-------------------------3--3-3-3-3--3--3-3-3-3-|
D------------------------------------------------| 
  d  d u d u  d  d u d u  d  d u d u  d  d u d u 


Verse 2


Why do, you wanna be all listenin' to me
E------------------------------------------------|
B-3--3-3-3-3--3--3-3-3-3--3--3-3-3-3--3--3-3-3-3-|
G-x--x-x-x-x--2--2-2-2-2--2--2-2-2-2--2--2-2-2-2-|
D-2--2-2-2-2--x--x-x-x-x--2--2-2-2-2--2--2-2-2-2-|
A-3--3-3-3-3--2--2-2-2-2--2--2-2-2-2--2--2-2-2-2-|
D-------------------------2--2-2-2-2--2--2-2-2-2-|
  d  d u d u  d  d u d u  d  d u d u  d  d u d u

Why do, you spread your arms and tell me I'm free
E------------------------------------------------|
B-3--3-3-3-3--3--3-3-3-3--3--3-3-3-3--3--3-3-3-3-|
G-x--x-x-x-x--2--2-2-2-2--2--2-2-2-2--2--2-2-2-2-|
D-2--2-2-2-2--x--x-x-x-x--2--2-2-2-2--2--2-2-2-2-|
A-3--3-3-3-3--2--2-2-2-2--2--2-2-2-2--2--2-2-2-2-|
D-------------------------2--2-2-2-2--2--2-2-2-2-|
  d  d u d u  d  d u d u  d  d u d u  d  d u d u

Why do, you wanna be in my life
E------------------------------------------------|
B-3--3-3-3-3--3--3-3-3-3--3--3-3-3-3--3--3-3-3-3-|
G-x--x-x-x-x--2--2-2-2-2--2--2-2-2-2--2--2-2-2-2-|
D-2--2-2-2-2--x--x-x-x-x--2--2-2-2-2--2--2-2-2-2-|
A-3--3-3-3-3--2--2-2-2-2--2--2-2-2-2--2--2-2-2-2-|
D-------------------------2--2-2-2-2--2--2-2-2-2-|
  d  d u d u  d  d u d u  d  d u d u  d  d u d u

In my life
E------------------------------------------------|
B-3--3-3-3-3--3--3-3-3-3--3~~--------------------|
G-x--x-x-x-x--2--2-2-2-2--2~~--------------------|
D-2--2-2-2-2--x--x-x-x-x--0~~--------------------|
A-3--3-3-3-3--2--2-2-2-2--0~~--------------------|
D-------------------------0~~--------------------|
  d  d u d u  d  d u d u  d


Chorus


I've been dirtier...
E------------------------------------------------|
B------------------------------------------------|
G------------------------------------------------|
D-5--5-5-5-5--5--5-5-5-5--2--2-2-2-2--2--2-2-2-2-|
A-5--5-5-5-5--5--5-5-5-5--2--2-2-2-2--2--2-2-2-2-|
D-5--5-5-5-5--5--5-5-5-5--2--2-2-2-2--2--2-2-2-2-| 
  d  d u d u  d  d u d u  d  d u d u  d  d u d u 

...than you wanna know.
E------------------------------------------------|
B-3--3-3-3-3--3--3-3-3-3--3--3-3-3-3--3--3-3-3-3-|
G-2--2-2-2-2--2--2-2-2-2--x--x-x-x-x--x--x-x-x-x-|
D-0--0-0-0-0--0--0-0-0-0--2--2-2-2-2--2--2-2-2-2-|
A-------------------------3--3-3-3-3--3--3-3-3-3-|
D------------------------------------------------| 
  d  d u d u  d  d u d u  d  d u d u  d  d u d u 

I've left earlier...
E------------------------------------------------|
B------------------------------------------------|
G------------------------------------------------|
D-5--5-5-5-5--5--5-5-5-5--2--2-2-2-2--2--2-2-2-2-|
A-5--5-5-5-5--5--5-5-5-5--2--2-2-2-2--2--2-2-2-2-|
D-5--5-5-5-5--5--5-5-5-5--2--2-2-2-2--2--2-2-2-2-| 
  d  d u d u  d  d u d u  d  d u d u  d  d u d u 

...than you'll ever know.
E------------------------------------------------|
B-3--3-3-3-3--3--3-3-3-3--3--3-3-3-3--3--3-3-3-3-|
G-2--2-2-2-2--2--2-2-2-2--x--x-x-x-x--x--x-x-x-x-|
D-0--0-0-0-0--0--0-0-0-0--2--2-2-2-2--2--2-2-2-2-|
A-------------------------3--3-3-3-3--3--3-3-3-3-|
D------------------------------------------------| 
  d  d u d u  d  d u d u  d  d u d u  d  d u d u 


Interlude

E------------------------------------------------|
B-3--3-3-3-3--3--3-3-3-3--3--3-3-3-3--3--3-3-3-3-|
G-x--x-x-x-x--2--2-2-2-2--2--2-2-2-2--2--2-2-2-2-|
D-2--2-2-2-2--x--x-x-x-x--2--2-2-2-2--2--2-2-2-2-|
A-3--3-3-3-3--2--2-2-2-2--2--2-2-2-2--2--2-2-2-2-|
D-------------------------2--2-2-2-2--2--2-2-2-2-|
  d  d u d u  d  d u d u  d  d u d u  d  d u d u

E------------------------------------------------|
B-3--3-3-3-3--3--3-3-3-3--3--3-3-3-3--3--3-3-3-3-|
G-x--x-x-x-x--2--2-2-2-2--2--2-2-2-2--2--2-2-2-2-|
D-2--2-2-2-2--x--x-x-x-x--2--2-2-2-2--2--2-2-2-2-|
A-3--3-3-3-3--2--2-2-2-2--2--2-2-2-2--2--2-2-2-2-|
D-------------------------2--2-2-2-2--2--2-2-2-2-|
  d  d u d u  d  d u d u  d  d u d u  d  d u d u

E------------------------------------------------|
B-3--3-3-3-3--3--3-3-3-3--3--3-3-3-3--3--3-3-3-3-|
G-x--x-x-x-x--2--2-2-2-2--2--2-2-2-2--2--2-2-2-2-|
D-2--2-2-2-2--x--x-x-x-x--2--2-2-2-2--2--2-2-2-2-|
A-3--3-3-3-3--2--2-2-2-2--2--2-2-2-2--2--2-2-2-2-|
D-------------------------2--2-2-2-2--2--2-2-2-2-|
  d  d u d u  d  d u d u  d  d u d u  d  d u d u

E------------------------------------------------|
B-3--3-3-3-3--3--3-3-3-3--3--3-3-3-3--3--3-3-3-3-|
G-x--x-x-x-x--2--2-2-2-2--2--2-2-2-2--2--2-2-2-2-|
D-2--2-2-2-2--x--x-x-x-x--0--0-0-0-0--0--0-0-0-0-|
A-3--3-3-3-3--2--2-2-2-2--0--0-0-0-0--0--0-0-0-0-|
D-------------------------0--0-0-0-0--0--0-0-0-0-|
  d  d u d u  d  d u d u  d  d u d u  d  d u d u 


Verse 3

Jesus, tease us
E------------------------------------------------|
B-3--3-3-3-3--3--3-3-3-3--3--3-3-3-3--3--3-3-3-3-|
G-x--x-x-x-x--2--2-2-2-2--2--2-2-2-2--2--2-2-2-2-|
D-2--2-2-2-2--x--x-x-x-x--2--2-2-2-2--2--2-2-2-2-|
A-3--3-3-3-3--2--2-2-2-2--2--2-2-2-2--2--2-2-2-2-|
D-------------------------2--2-2-2-2--2--2-2-2-2-|
  d  d u d u  d  d u d u  d  d u d u  d  d u d u

There's something about your name
E------------------------------------------------|
B-3--3-3-3-3--3--3-3-3-3--3--3-3-3-3--3--3-3-3-3-|
G-x--x-x-x-x--2--2-2-2-2--2--2-2-2-2--2--2-2-2-2-|
D-2--2-2-2-2--x--x-x-x-x--2--2-2-2-2--2--2-2-2-2-|
A-3--3-3-3-3--2--2-2-2-2--2--2-2-2-2--2--2-2-2-2-|
D-------------------------2--2-2-2-2--2--2-2-2-2-|
  d  d u d u  d  d u d u  d  d u d u  d  d u d u

Master, Saviour
E------------------------------------------------|
B-3--3-3-3-3--3--3-3-3-3--3--3-3-3-3--3--3-3-3-3-|
G-x--x-x-x-x--2--2-2-2-2--2--2-2-2-2--2--2-2-2-2-|
D-2--2-2-2-2--x--x-x-x-x--2--2-2-2-2--2--2-2-2-2-|
A-3--3-3-3-3--2--2-2-2-2--2--2-2-2-2--2--2-2-2-2-|
D-------------------------2--2-2-2-2--2--2-2-2-2-|
  d  d u d u  d  d u d u  d  d u d u  d  d u d u

Jesus
E------------------------------------------------|
B-3--3-3-3-3--3--3-3-3-3--3~~--------------------|
G-x--x-x-x-x--2--2-2-2-2--2~~--------------------|
D-2--2-2-2-2--x--x-x-x-x--0~~--------------------|
A-3--3-3-3-3--2--2-2-2-2--0~~--------------------|
D-------------------------0~~--------------------|


Chorus


I've been dirtier...
E------------------------------------------------|
B------------------------------------------------|
G------------------------------------------------|
D-5--5-5-5-5--5--5-5-5-5--2--2-2-2-2--2--2-2-2-2-|
A-5--5-5-5-5--5--5-5-5-5--2--2-2-2-2--2--2-2-2-2-|
D-5--5-5-5-5--5--5-5-5-5--2--2-2-2-2--2--2-2-2-2-| 
  d  d u d u  d  d u d u  d  d u d u  d  d u d u 

...than you wanna know.
E------------------------------------------------|
B-3--3-3-3-3--3--3-3-3-3--3--3-3-3-3--3--3-3-3-3-|
G-2--2-2-2-2--2--2-2-2-2--x--x-x-x-x--x--x-x-x-x-|
D-0--0-0-0-0--0--0-0-0-0--2--2-2-2-2--2--2-2-2-2-|
A-------------------------3--3-3-3-3--3--3-3-3-3-|
D------------------------------------------------| 
  d  d u d u  d  d u d u  d  d u d u  d  d u d u 

I've left earlier...
E------------------------------------------------|
B------------------------------------------------|
G------------------------------------------------|
D-5--5-5-5-5--5--5-5-5-5--2--2-2-2-2--2--2-2-2-2-|
A-5--5-5-5-5--5--5-5-5-5--2--2-2-2-2--2--2-2-2-2-|
D-5--5-5-5-5--5--5-5-5-5--2--2-2-2-2--2--2-2-2-2-| 
  d  d u d u  d  d u d u  d  d u d u  d  d u d u 

...than you'll ever know.
E------------------------------------------------|
B-3--3-3-3-3--3--3-3-3-3--3--3-3-3-3--3--3-3-3-3-|
G-2--2-2-2-2--2--2-2-2-2--x--x-x-x-x--x--x-x-x-x-|
D-0--0-0-0-0--0--0-0-0-0--2--2-2-2-2--2--2-2-2-2-|
A-------------------------3--3-3-3-3--3--3-3-3-3-|
D------------------------------------------------| 
  d  d u d u  d  d u d u  d  d u d u  d  d u d u 

Outro (Play very lightly)

Jesus, Jesus
E------------------------------------------------|
B-3~~--3~~--3~~----------------------------------|
G-x~~--2~~--2~~----------------------------------|
D-2~~--x~~--2~~----------------------------------|
A-3~~--2~~--2~~----------------------------------|
D-----------2~~----------------------------------|
  d  d u d u  d  d u d u  d 


Tab Key

d = downstroke
u = upstroke
~ = let ring
x = mute string
Suggest correction
comments
print report bad tab
5 comments total. Showing first comments.
0 reply
schulty007 10 Jun 28, 2008 07:58 PM

great tab, 5 stars from me sounds perfect

0 reply
schulty007 10 Jun 28, 2008 07:58 PM

great tab. 5 stars from me

-2 reply
certified2587 10 Jul 02, 2008 02:10 PM

this tab is wrong wrong wrong.

guest
You may want to rate the tab now too:
select rating
Wanna post a correction for this tab? Suggest correction