Oops, an error
Loading. Please wait.

Drive There Now Bass Tab

version 1
version 1

Whole song

1,252 views 1 this week
2 commentsread comments
1 2 3 4 5
please rate
add to favorites
launch autoscroll
font size
0
reset
guitar tuner
Autoscroll
slow
fast
+/-
esc
set tempo
stop
Help us to improve Ultimate-Guitar.com Take our survey!
×
Difficulty
novice
Song: Drive There Now
Artist: The Almost
Album: Southern Weather
Tabbed by: Joe

Intro:
G:----------------------------------|
D:----------------------------------|
A:----4-----------------------------|
E:-5>---2>--------------------------|(x4)

Verse:
G:----------------------------------|
D:----------------------------------|
A:----4>----------------------------|
E:-5>----2>-------------------------|(x4)

Pre-Chorus:
G:----------------------------------|
D:----------------------------------|
A:-0>-(slide)-12--------------------|
E:----------------------------------|(x1)

Chorus:
G:----------------------------------|
D:----------------------------------|
A:-4>--0>--2>--4>--0>--2>-----------|
E:-------------------------2--4--5--|<- repeat last part twice second time around and 
third time around]

Bridge:
G:----------------------------------|
D:----------------------------------|
A:-4>--2>--0>--4>--7>--0>----4------|
E:-------------------------5---2----|(x1)

Outro:
G:----------------------------------|
D:----------------------------------|
A:----------------------------------|
E:-2--4--5--------------------------|

Song Structure:
Intro
Verse
Pre-Chorus
Chorus
Verse
Pre-Chorus
Chorus
Bride
Chorus
Outro

I tabbed by listening to the song on their myspace page(www.myspace.com/thealmost). Any
email me at bajista86@yahoo.com or www.myspace.com/joeblackness
Suggest correction
Give kudos to tab author, rate the tab!
1 2 3 4 5
comments
print report bad tab
2 comments total.
+1 reply
mattwilham 241 wrote on April 5 2007, 03:29 pm

finally a good almost tab haha. good job

+1 reply
bajista86 51 wrote on April 5 2007, 06:10 pm

thanks..

guest
You may want to rate the tab now too:
select rating
Wanna post a correction for this tab? Suggest correction