Oops, an error
Loading. Please wait.

Drive There Now Bass Tab

version 2
version 2

Whole song

690 views 1 this week
no commentswrite comment
1 2 3 4 5
3 more votes to show rating
add to favorites
launch autoscroll
font size
0
reset
guitar tuner
Autoscroll
slow
fast
+/-
esc
set tempo
stop
Help us to improve Ultimate-Guitar.com Take our survey!
×
Author
-------------------------------------------------------------------------------
		     Drive There Now! - The Almost
-------------------------------------------------------------------------------

 Tabbed By :dvanwyk
 Tuning:Drop D

 Intro x4
G|---------------------------|
D|---------------------------|
A|000-4-9-99-9---------------|
D|---------------------------|

 Verse x2
G|---------------------------|
D|---------------------------|
A|0-00-0-4-44-4--------------|
D|--------------4~-----------|

 x2 (11's not 1's)
G|---------------------------------------|
D|---------------------------------------|
A|00000000-44444444----------------------|
D|------------------44444444-44444444----|

 Pre-Chorus x1
G|----------------------------------------|
D|----------------------------------------|
A|0~------12/12/12/12/12/12/12/12/12------|
D|----------------------------------------|

 Chorus x2
G|--------------------------------------------------------|
D|--------------------------------------------------------|
A|4444444444444444-00000000000000000-2222222222222222-----|
D|--------------------------------------------------------|

 Post-Chorus
G|-------------------|
D|-------------------|
A|-------------------|
D|4~--6~--7~---------|

 Verse
 Pre-Chorus
 chorus
 Post-Chorus x2

 Bridge
G|----------------------------------------|
D|----------------------------------------|
A|44444444-22222222-0000000000000000------|
D|----------------------------------------|

G|----------------------------------------|
D|----------------------------------------|
A|44444444-77777777-0-00-0~---0~----------|
D|----------------------------------------|


G|------------------------|
D|------------------------|
A|0~--/4~---9-------------|
D|-------------xx---------|

 Chorus 
 Post-Chorus x1

Suggest correction
Give kudos to tab author, rate the tab!
1 2 3 4 5
comments
print report bad tab
guest
You may want to rate the tab now too:
select rating
Wanna post a correction for this tab? Suggest correction