Oops, an error
Loading. Please wait.

Drive There Now Tab

version 2
version 2

Whole song

1,627 views 3 this week
no commentswrite comment
1 2 3 4 5
please rate
add to favorites
launch autoscroll
font size
0
reset
how to read this tab
guitar tuner
Tab Pro tools
  • play this tab
  • loop segment
  • change instrument
  • show fretboard
  • metronome
×
Best way to learn
"Drive There Now"
Autoscroll
slow
fast
+/-
esc
set tempo
stop
Contributor
-----------------------------------------------------------------------------
                             Drive There Now - The Almost
-----------------------------------------------------------------------------
Tabbed by:Krysta(hellokrysta)

Tuning:DROP D
INTRO (:06-:18)
e|---------------------------------4--------------------4-------------------|
B|---------------------------4h555---4h555-4h555--4h555---4h555-4h5-44~-----|
G|---------6----------------------------------------------------------------|
D|-xx-777--6--444444-x2-----------------------------------------------------|
A|-xx-777--4--444444--------------------------------------------------------|
E|-xx-777--0--444444--------------------------------------------------------|

VERSE (:19-:40) Figure out the strumming pattern for yourself. -___-
e|--------------------------------------------------------------------------|
B|--------------------------------------------------------------------------|
G|---6-66------------6-66-----------------666666----------------666666------|
D|7--6-66-4-44--7-77-6-66-4-44-----777777-666666-444444--777777-666666-444--|
A|7--4-44-4-44--7-77-4-44-4-44-----777777-444444-444444--777777-444444-444--|
E|7--0-00-4-44--7-77-0-00-4-44-----777777-000000-444444--777777-000000-444--|
winter days make me say...         way back when we...

PRECHORUS (:40-:46)
e|--------------------------------------------------------------------------|
B|--------4h55555-4h55555-4h55555-------------------------------------------|
G|--------------------------------------------------------------------------|
D|-7-77---------------------------------------------------------------------|
A|-7-77---------------------------------------------------------------------|
E|-7-77---------------------------------------------------------------------|

CHORUS (:46-1:07)
e|--------------------------------------------------------------------------|
B|--------------------------------------------------------------------------|
G|xxxx-666666---222222---444444-------666666---222222---444444-4------------|
D|xxxx-666666---222222---444444-------666666---222222---444444-4------------|
A|xxxx-444444---000000---222222-------444444---000000---222222-2------------|
E|xxxx-000000---000000---000000-------000000---000000---000000-0------------|
       i love the way...              i love the smile.

(1:09-1:13)
e|--------------------------------------------------------------------------|
B|--------------------------------------------------------------------------|
G|-6-6-----6-4-6----7-------------------------------------------------------|
D|-6--6----6--------7---6b--------------------------------------------------|
A|-4-------6--------7-------------------------------------------------------|
E|-0-------0--------7-------------------------------------------------------|

(1:14-1:24)
e|--------------------------------------------------------------------------|
B|--------------------------------------------------------------------------|
G|-7-7777--6-6666--4-4444----7-7777--6-6666--4-4444-------------------------|
D|-7-7777--6-6666--4-4444----7-7777--6-6666--4-4444-------------------------|
A|-7-7777--4-4444--4-4444----7-7777--4-4444--4-4444------12/----(PICKSLIDE)-|
E|-7-7777--0-0000--4-4444----7-7777--0-0000--4-4444-------------------------|
i hope this gets you..       i hope you act so much stronger..

(1:25-1:35)
e|--------------------------------------------------------------------------|
B|--------------------------------------------------------------------------|
G|--------------------------------------------------------------------------|
D|-------------------------------------(PLAY TWICE.)------------------------|
A|00000000-44444444---------------------------------------------------------|
E|------------------44444444-44444444---------------------------------------|
even I imagined honestly..



(PRE-CHORUS)

(CHORUS)


(2:04-2:15)
e|--------------------------------------------------------------------------|
B|--------------------------------------------------------------------------|
G|-6-6-----6-4-6----7---------------6-6-----6-4-6----7----------------------|
D|-6--6----6--------7---6b----------6--6----6--------7---6B-----------------|
A|-4-------6--------7---------------4-------6--------7----------------------|
E|-0-------0--------7---------------0-------0--------7----------------------|
  thiiiiisss...                     oooooohh.

(2:16-2:31)
e|--------------------------------------------------------------------------|
B|--------------------------------------------------------------------------|
G|-66666666--4444444--2222222---66666666--99999999--2-2-2--2-2-2--7---6---4-|
D|-66666666--4444444--2222222---66666666--99999999--2-2-2--2-2-2--7x3-6x3-4-|
A|-44444444--2222222--0000000---44444444--77777777--0-0-0--0-0-0--7---4---4-|
E|-00000000--0000000--0000000---00000000--00000000--0-0-0--0-0-0--7---0---4-|
i want you to remember me..     when they tell you this is so...

(CHORUS)

OUTRO:(2:56-3:10)
e|--------------------------------------------------------------------------|
B|--------------------------------------------------------------------------|
G|-6-6-----6-4-6----7-------------------------------------------------------|
D|-6--6----6--------7---6b--------------------------------------------------|
A|-4-------6--------7-------------------------------------------------------|
E|-0-------0--------7-------------------------------------------------------|
thiiiiiiiiiiiiiiiisssss....
comments
We did not receive enough feedback on this tab! Please rate:
print report bad tab
1 2 3 4 5
I want to post or [tab]
guest
You may want to rate the tab now too:
select rating
Please do not post tabs as comments. Select "correction" instead!