Oops, an error
Loading. Please wait.

Everthing Makes Me Sick Acoustic Tab

951 views 1 this week
no commentswrite comment
1 2 3 4 5
excellent!
x 1
add to favorites
launch autoscroll
font size
0
reset
how to read this tab
guitar tuner
Tab Pro tools
  • play this tab
  • loop segment
  • change instrument
  • show fretboard
  • metronome
Autoscroll
slow
fast
+/-
esc
set tempo
stop
Contributor
Difficulty
novice
this is from the video of Aaron playing it by himself.
 http://www.youtube.com/watch?v=txRBFn1kbBE&feature=related
 check it out.


[intro]-
----------------------------------------------------------------|
--3-------------3--------3-------3-------3-----3-----3-----3----|
--2-------------2--------2-------2-------2-----2-----2-----2----|
--0-------------0--------0-------2-------0-----0-----0-----2----|
--2-------------x--------x-------0-------2-----x-----x-----0----|
----------------2--------3---------------------2-----3----------|
 * * * * * * * * * * * * * * * * * * * * * * * * * * * * * * * *

[verse]

---------------------------|
-3---3----3----3-----------|
-2---2----2----2-----------|
-0---2----0----0----x2-----|
-2---0----x----x-----------|
----------2----3-----------|


[pre-chorus]

---------------------------|
-3-------5---/---6---------|
-2-------4---/---5---------|
-0-------0---/---0---------|
-x-------x---/---x---------|
-3-------5---/---6---------|

[chorus]

---------------------------------------------|
--7--7h8--7-------3------5---/---6-----------|
--6--6----6-------2------4---/---5-----------|
--0--0----0-------0------0---/---0-----------|x2
--x--x----x-------x------x---/---x-----------|
--7--7----7-------3------5---/---6-----------|


[intro]

[verse]

[pre-chorus]

[chorus]

[bridge]

------------------------------|
------------------------------|
--9---8--6--4--2--1--2--4--5--|
------------------------------|
------------------------------|
--10--9--7--5--3--2--3--5--6--|

[chorus]


end on

---------------|
----7----------|
----6----------|
----0----------|
----x----------|
----7----------|
comments
We did not receive enough feedback on this tab! Please rate:
print report bad tab
1 2 3 4 5
I want to post or [tab]
guest
You may want to rate the tab now too:
select rating
Please do not post tabs as comments. Select "correction" instead!