Oops, an error
Loading. Please wait.

Everything That Makes Me Sick Chords

5,852 views 1 this week
no commentswrite comment
1 2 3 4 5
please rate
add to favorites
launch autoscroll
font size
0
reset
transpose
0
reset
display chords
guitar tuner
Autoscroll
slow
fast
+/-
esc
set tempo
stop
Help us to improve Ultimate-Guitar.com Take our survey!
×
Author
Band: The Almost
Song: Everything That Makes Me Sick
Album: Southern Weather
Tabbed By: Matthew Florio; www.myspace.com/mattflorio2
Email: Shempashland@yahoo.com

This is a very good song! One of my favorites from the album.
It's pretty easy once you figure things out.
If you need anything message or email me!
Have fun!

Intro (2x)
* put a slight bend on that note
e--0--0--0---0--:--0--0--0---0-|
B--3--3--3---3--:--3--3--3---3-|
G--2--2--2---2--:--2--2--2---0-|
D--2--0--0---0--:--2--0--0---2-|
A--0--2--0---x--:--0--2--0---2-|
E--------2*--3--:--------2*--0-|
"Be everything, Be all..."

Verse
e--0--0--0--0-|
B--3--3--3--3-|
G--2--2--2--2-|
D--0--0--0--2-|
A--2--0--x--0-|
E-----2--3----|
PM....... (2x)
"Come down and make me see..."

e--0--0--0--0-|
B--3--3--3--3-|
G--2--2--2--2-|
D--0--0--0--2-|
A--2--0--x--0-|
E-----2--3----|
(2x) unpalm muted
"brilliant thoughts..."

Prechorus
e--0----0--0--|
B--3----5--6--|
G--2----4--5--|
D--0----0--0--|
A--x----x--x--|
E--3----5--6--|
"she told you so..."

Chorus
e--0---0---0---0-|
B--7---3---5---6-|
G--6---2---4---5-|
D--0---0---0---0-|
A--x---x---x---x-|
E--7---3---5---6-|

Intro 

Verse 2
e--0--0--0--0-|
B--3--3--3--3-|
G--2--2--2--2-|
D--0--0--0--2-|
A--2--0--x--0-|
E-----2--3----|
unpalm muted
"so come down..."

e--0--0--0--0-|
B--3--3--3--3-|
G--2--2--2--2-|
D--0--0--0--2-|
A--2--0--x--0-|
E-----2--3----|
PM....
"this is no place for..."

Prechorus

Chorus

Bridge
e--0--0-0-0-0-0-0-0-0-|
B--0--0-0-0-3-3-3-5-6-|
G--5--5-4-2-2-2-2-4-5-|
D--0--0-0-0-0-0-0-0-0-|
A--x--x-x-x-x-x-x-x-x-|
E--10-9-7-5-3-2-3-5-6-|

e--0--0-0-0-0-0-0-0-|
B--0--0-0-0-3-3-3-3-|
G--5--5-4-2-2-2-2-2-|
D--0--0-0-0-0-0-0-2-|
A--x--x-x-x-x-x-x-0-|
E--10-9-7-5-3-2-3---|
"I dont think we'll..."

Interlude
This is just before the chorus comes back in.. chord is just repeated
e--0--|
B--0--|
G--6--|
D--0--|
A--x--|
E--7--|

Chorus


Suggest correction
What's this?
You can suggest a correction to this tab. Community and Mods will review your correction and vote to approve or reject it.
comments
We did not receive enough feedback on this tab! Please rate:
print report bad tab
1 2 3 4 5
guest
You may want to rate the tab now too:
select rating
Please do not post tabs as comments. Select "correction" instead!