Oops, an error
Loading. Please wait.

Everything That Makes Me Sick Tab

version 1
version 1

Intro

Whole song

1,183 views 1 this week
2 commentsread comments
1 2 3 4 5
please rate
add to favorites
launch autoscroll
font size
0
reset
how to read this tab
guitar tuner
Autoscroll
slow
fast
+/-
esc
set tempo
stop
Help us to improve Ultimate-Guitar.com Take our survey!
×
Difficulty
novice
Tabbed by:
Email:prepEkiddo1010@aim.com

Tuning:drop d    THIS IS JUST A START!!!

e|-x-x-x--------------------------------------------------------------------|
B- x-x-x--------------------------------------------------------------------|
G|-x-x x--2--------4-----------2---------4----------------------------------|
D|-x-x-x--2-x 2----4--x2-------2--x 2----4--x2--------------------x 2-------|
A|-x-x-x--0--------2-----------0---------2----------------------------------|
E|-x-x-x----------------5b-------------------------5b--------2--------------|

e|--------------------------------------------------------------------------|
B|--------------------------------------------------------------------------|
G|--------------------------------------------------------------------------|
D|--9--------7--------5-----------------7-----------------------------------|
A|--9-x 8----7--x 8---5--x 16--~slide~--7--x 2----------x2------------------|
E|--9--------7--------5-----------------7-----------------------------------|
    xxxxxplam mutedxxxx                open
comments
We did not receive enough feedback on this tab! Please rate:
print report bad tab
1 2 3 4 5
2 comments total.
0 reply
uglycannon 36 wrote on September 5 2007, 08:01 pm

this sounds wrong i play it like this

|----------------------------
|-----------------------------
|----------------------------
|--7777--99--4b------------
|--7777--99--4b--------
|--7777--99--4b------------

0 reply
jesuswalked2008 273 wrote on October 6 2007, 07:17 pm

this one above sounds right.

I want to post or [tab]
guest
You may want to rate the tab now too:
select rating
Please do not post tabs as comments. Select "correction" instead!