Oops, an error
Loading. Please wait.

I Mostly Copy Other People Bass Tab

898 views 1 this week
1 commentread comment
1 2 3 4 5
please rate
add to favorites
launch autoscroll
font size
0
reset
guitar tuner
Autoscroll
slow
fast
+/-
esc
set tempo
stop
Help us to improve Ultimate-Guitar.com Take our survey!
×
Author
-------------------------------------------------------------------------------
	       I Mostly Copy Other People - The Almost
-------------------------------------------------------------------------------

 Tabbed By :dvanwyk
 Tuning:Drop D

 Intro x2
G|------------------------------------------|
D|------------------------------------------|
A|00000000-55555555-------------------------|
D|------------------5555-7-7-33333333-------|

 Verse x2
G|--------------------------|
D|--------------------------|
A|0~------3~----------------|
D|------------55-7-3~-------|

 x2
G|---------------------------------|
D|---------------------------------|
A|00000000-55555555----------------|
D|------------------55-5/7-3~------|

 Pre-Chorus
G|---------------------------------|
D|---------------------------------|
A|---------------------------------|
D|33333333-55555555-66666666-------|

 Chorus x1
G|-------------------------------------------------|
D|-------------------------------------------------|
A|33333333-----------------------------------------|
D|---------33333333-555555-77-7-3-33-7--777--------|

 Post-Chorus x2
G|------------------------------------------|
D|------------------------------------------|
A|00000000-55555555-------------------------|
D|------------------5555-7-7-33333333-------|

 Verse x2
G|--------------------------|
D|--------------------------|
A|0~------5~----------------|
D|------------55-7-3~-------|

G|---------------2-----2--------------------------|
D|-----------0h2---0h2----------------------------|
A|0-0-0-0-0--------------5-5-5-5-5-5--------------|
D|-----------------------------------555-77-3-----|

G|----------0/2222--------------------------------|
D|------------------------------------------------|
A|0-0-0-0-0--------5-5-5-5-5-5--------------------|
D|-----------------------------555-77-3-----------|

 Pre-Chorus
 
 Chorus 
G|-------------------------------------------------|
D|-------------------------------------------------|
A|33333333-----------------------------------------|
D|---------33333333-555555-77-7-3-33-7-777---------|

G|---------------------------4-777-----------------------|
D|-----------------------555-----------------------------|
A|33333333-----------------------------------------------|
D|---------33333333-5555-----------77-7--3-33-7-777------|

 Bridge
G|-----------------------------------------|
D|-----------------------------------------|
A|-----------------------------------------|
D|33333333-55555555-77777777-66666666------|

G|----------------------------------------------|
D|----------------------------------------------|
A|----------------------------------------------|
D|33333333-55555555-66666666-66-6666-66-6666----|

 Pause

 Chorus (2.22)
G|----------------------|
D|----------------------|
A|----------------------|
D|77-7-3-33-7-777-------|
 
 
G|-------------------------------------------------|
D|-------------------------------------------------|
A|33333333-----------------------------------------|
D|---------33333333-555555-77-7-3-33-7-777---------|

G|-------------------------------------------------|
D|---------33333333-55555555-----------------------|
A|33333333-----------------------------------------|
D|---------------------------77-7-3-33-7-77--------|

G|-------------------------------------------------|
D|---------33333333-55555555-----------------------|
A|33333333-----------------------------------------|
D|---------------------------77-7-3-33-7-77--------|

G|--------------------------------------------------------|
D|--------------------555-777-55555555--------------------|
A|33333333-55-77-8888-------------------------------------|
D|-------------------------------------77-7-3-33-7-77-----|

 Outro
G|------------------------------------------|
D|------------------------------------------|
A|00000000-55555555-------------------------|
D|------------------5555-7-7-33333333-------|

G|------------------------------|
D|------------------------------|
A|00000000-55555555-------------|
D|------------------55-77-33~---|
Suggest correction
Give kudos to tab author, rate the tab!
1 2 3 4 5
comments
print report bad tab
1 comment total.
0 reply
supadonut 178 wrote on April 8 2010, 09:30 pm

no need for drop d

guest
You may want to rate the tab now too:
select rating
Please do not post tabs as comments. Select "correction" instead!