Oops, an error
Loading. Please wait.

I Mostly Copy Other People Tab

5,248 views 3 this week
2 commentsread comments
1 2 3 4 5
accurate
x 4
add to favorites
launch autoscroll
font size
0
reset
how to read this tab
guitar tuner
Tab Pro tools
  • play this tab
  • loop segment
  • change instrument
  • show fretboard
  • metronome
×
Best way to learn
"I Mostly Copy Other People"
Autoscroll
slow
fast
+/-
esc
set tempo
stop
Contributor
Difficulty
Tuning
intermediate
D A D G B E
Artist: The Almost
Song: I Mostly Copy Other People
Tuning: Drop D
Tabbed By: Ryan Tretiak
Email: fbcstreetrider@yahoo.com

I usually play this on my acoustic, but I'm sure it's the same for the electric version 
If you have any questions, feel free to email me.

Intro/Pre Verse:

These are the chords used for the intro, figure out the strum pattern.

e|-------------------------|
B|-------------------------|
G|--5---5------------------|
D|--5----------------------|
A|------5------------------|
D|----------555-777-333-333|

Verse:

These are the chords used for the verse, figure out the strum pattern.

Part 1:
e|-------------------------|
B|-------------------------|
G|--xx-5-------------------|
D|--xx-5-------------------|
A|--xx---------------------|
D|--xx---------------------| Let Ring

e|-------------------------|
B|-------------------------|
G|--5----------------------|
D|-------------------------|
A|--5----------------------|
D|------555--7-77----------|

Part2:
e|-------------------------|
B|-------------------------|
G|--5---5------------------|
D|--5----------------------|
A|------5------------------|
D|----------555-7-77-------|

Pre Chorus:

Figure out how many times to hit each note.

e|-------------------------|
B|-------------------------|
G|-------------------------|
D|-------------------------|
A|-------------------------|
D|--3---5---6--------------|
    x   x   x

Chorus:

These are the chords used for the chorus, figure out the strum pattern.

e|----------------------------|
B|--3---3---------------------|
G|----------------------------|
D|------3---5---7-333--7-333--|
A|--3---3---5---7-333--7-333--|
D|------3---5---7-333--7-333--|

Bridge:

Figure out how many times to hit each note.

e|--------------------------|
B|--------------------------|
G|--------------------------|
D|--3---5---7---6-----------|
A|--3---5---7---6-----------|
D|--3---5---7---6-----------|

e|--------------------------|
B|--------------------------|
G|--------------------------|
D|--3---5---77-77-7-77-77---|
A|--3---5---77-77-7-77-77---|
D|--3---5---77-77-7-77-77---|


e|-------------------------|
B|--3----------------------|
G|-------------------------|
D|-------------------------|
A|--3----------------------|
D|-------------------------| Let Ring

e|-------------------------|
B|-------------------------|
G|-------------------------|
D|--7-333--7-333-----------|
A|--7-333--7-333-----------|
D|--7-333--7-333-----------|

Outro:

These are the chords used for the outro, figure out the strum pattern.

e|-------------------------|
B|-------------------------|
G|--5---5------------------|
D|--5----------------------|
A|------5------------------|
D|----------555-777-333-333|

e|-------------------------|
B|-------------------------|
G|--5---5------------------|
D|--5----------------------|
A|------5------------------|
D|----------555-777-3------|


Song Breakdown:

Intro: X2
Verse (Part 1): X2
Verse (Part 2): X2
Pre Chorus: X1
Chorus: X1
Pre Verse: X2
Verse (Part 1): X2
Verse (Part 2): X2
Pre Chorus: X1
Chorus: X2
Bridge: X1
Chorus: X3
Outro: X1
comments
print report bad tab
2 comments total.
0 reply
acemonty23 wrote on November 22 2007, 07:11 pm

the intro part, lead guitar goes something like
this:

e|--------------------------------------|x2
B|--------0---3333---------0---5555-----|
G|----5-----5----------
5-----5----------|
D|--5---5------------5---5--------------|
A|--------------------------------------|
D|------------
--------------------------|

just thought i'd post it cuz it sounds sick but great tab

0 reply
acemonty23 wrote on November 22 2007, 07:12 pm

shit that messed up forgot to use the tab thing:


e|--------------------------------------|x2
B|--------0---3333---------0---5555-----|
G|----5-----5----------5-----5----------|
D|--5---5------------5---5--------------|
A|--------------------------------------|
D|--------------------------------------|

I want to post or [tab]
guest
You may want to rate the tab now too:
select rating
Please do not post tabs as comments. Select "correction" instead!