Oops, an error
Loading. Please wait.

Lonely Wheel tab

version 1
version 1

Whole song

131 views 1 this week
no commentswrite comment
1 2 3 4 5
3 more votes to show rating
add to favorites
×
Save as Personal and add changes to this tab that will be seen only by you. Learn more ›
×
You can save this tab as Personal to edit and correct it or add notes. All changes will be seen only by you. Learn more »
launch autoscroll
font size
0
reset
how to read this tab
guitar tuner
edit
Autoscroll
slow
fast
+/-
esc
set tempo
stop
Author
Difficulty
-----------------------------------------------------------------------------
                    LONELY WHEEL - The Almost
-----------------------------------------------------------------------------
E-mail: a7xlucas@live.com

Tuning: Standard (EADGBe)

Off their album Monster Monster (2009). I can't guarantee those light distortion parts and intro/chorus
parts are spot on bit they should be pretty close. Enjoy!

My guitar cover will be on YouTube shortly!

/ or \ - slide to and from a note
* - palm mute
. - release (stop) note from ringing out after playing it
p - pull-off
~ - hold note
b - bend note

Intro (light distortion and delay, guitar 1 only):                    V Artificial harmonic
e|-xx-------------------------------------------------------------|
B|-xx----1~-3~------33-1~---1~--11------------111~-1-333~---------|
G|-xx-0~-2~-2~------22-2~---2~--22-0~-00000~--000~-0-000~---------|
D|-xx-2~-2~-2~------22-------------0~-00000~--000~-0-000~--(7)~-x-|
A|-xx-0~-0~-0~------00-3~---3~--33------------------------------x-|
E|-xx------------------------------3~-33333~--333~-3-333~-------x-|

Intro Pt. 2:

Guitar 1
e|----------------------------|
B|----------------------------|
G|--------5-------------------|
D|-7------5--x16-5------------|
A|-7--x16-3------5--x32-------|
E|-5-------------3------5~----|

Guitar 2
e|-----------------------------------------------------------------------------------------------------|
B|---------.--.------------.-----------------------------------.--.------------------------------------|
G|-7~-7-5-77--5----7~-77-5-2--2~-00-2~-xx-7b8~r-7~-777~-7~-77777--5----77777-5-2~-00-5~-00-2~-2~-2222~-|
D|-----------------------------------------------------------------------------------------------------|
A|-----------------------------------------------------------------------------------------------------|
E|-----------------------------------------------------------------------------------------------------|
                                 **                                               **    **
Verse (guitar 1 only, clean):
e|-------------------------------------------------------------------------------------------|
B|-----------1~---0~----------1~--3~-33~--------1~----1~----1~----1~----1~----1~----1~----1~-|
G|-----------0~---0~---4~-----2~--0~-00~--------2~----2~----2~----2~----0~----0~----0~----0~-|
D|-----------0~---0~----------2~--0~-00~--------2~----2~----2~----2~----0~----0~----0~----0~-|
A|----------------------------0~-------------00~~~-00~~~-00~~~-00~~~-------------------------|
E|-(5~)------3~---3~---4----------3~-33~-----------------------------33~~~-33~~~-33~~~-33~~~-|
                                                 V Back to distortion or guitar 2 can play this
e|----------------------------------------------------------------|
B|----------------------------1~----1~----------------------------|
G|----4~----4~----4~----4~----2~----2~---------------(12.9)-------| 
D|----------------------------2~----2~---------(12.9)------(12.9)-| 
A|-------------------------00~~~-00~~~----------------------------|
E|-44~~~-44~~~-44~~~-44~~~-------------33~~~----------------------|
                                                   ^    ^   ^ Artificial harmonics
Chorus:

Guitar 1
e|----------------------------------------------------------------|
B|----------------------------------------------------------------|
G|--------5-----------------------------------5-------------------|
D|-7------5--x16-5------7--------------7------5--x16-5------4-----|
A|-7--x16-3------5--x32-7--x12-(pause)-7--x16-3------5--x16-5-x16-|
E|-5-------------3------5--------------5-------------3------2-----|

Guitar 2 (not 100% accurate)
e|---------------------2x-|------------------------------------------------------------------------||
B|------.--.------------.-|------------------------------------------------------------------------||
G|-5~-5-7--7--5~-7~-5~-55-|-5~--7~-5~-7~-5~-7~-5~-x-5~---55~--5~-5~-2~-2~---22~---5~-5-7--7--5~-7~-||
D|------------------------|----------------------------5------------------4------------------------||
A|------------------------|------------------------------------------------------------------------||
E|------------------------|------------------------------------------------------------------------||

e|---------------------------------------------------------------------------------------------||
B|---------------------------------------------------------------------------------------------||
G|-7b9~-7p5---7b9~--5~-5-7--7--5~-7~-5~-55~-5~-7~-5~-7~-5~-7~-5~-x-5~---55~--5~-5~-2~-2~---22~-||
D|----------7---------------------------------------------------------5------------------4-----||
A|---------------------------------------------------------------------------------------------||
E|---------------------------------------------------------------------------------------------||

Verse 2 (guitar 2 only):

Guitar 2
E|-----------------------------------------------------------------------------------------------|
B|-----------------------------------------------------------------------------------------------|
G|----------------------------------------------------4------4----4------------------------------|
D|----7------7----7----777----5------5----5----555----6------6----6-------7------7------5---5555-|
A|----7------7----7----777----5------5----5----555------------------------7------7------5---5555-|
E|-55---5555---55---55-----33---3333---33---33-----44---4444---44---44-55---5555---5-33---333333-| 
   **   ****   **   **     **   ****   **   **     **   ****   **   ** **   ****   * **   **
E|----------------------------------------------------------------------------------------------------|
B|----------------------------------------------------------------------------------------------------|
G|----------------------------------------------------4------4----4-----------------------------------|
D|----7------7----7----777----5------5----5----555----6------6----6---6666-7-----5-----------------xx-|
A|----7------7----7----777----5------5----5----555--------------------6666-7--x8-5--x8---(pause)---xx-|
E|-55---5555---55---55-----33---3333---33---33-----44---4444---44---444444-5-----3-----------------xx-|
   **   ****   **   **     **   ****   **   **     **   ****   **   **    
Repeat:
Chorus - Guitar 2 is different (not 100% accurate):
e|---------------------2x-|----------------------------------|------------------|-------------------||
B|------.--.------------.-|----------------------------------|-----------8------|-------------------||
G|-5~-5-7--7--5~-7~-5~-55-|-5~--7~-5~-7~-5~-7~-5~-x-5~---55~-|-7~----7b9~~~b9r7-|-5~-5~-2~-2~---22~-||
D|------------------------|----------------------------5-----|----7~------------|-------------4-----||
A|------------------------|----------------------------------|------------------|-------------------||
E|------------------------|----------------------------------|---------------1.-|----------------2.-||

Bridge: (the following bends are done by bending gradually more and more)

Guitar 1       V Bend slightly              V Bend slightly          V Bend slightly V      
e|---------------------------------------------------------------------------------------|
B|---------------------------------------------------------------------------------------|
G|-------------11b-----10------------------11b-----10-----------------11b-----11-12b-----|
D|-7-----5----------x8-----x8--7-----5----------x8-----x8-7-----5----------x8---------x7-|
A|-7--x8-5--x8-9-b-----8-------7--x8-5--x8-9-b-----8------7--x8-5--x8-9-b-----9--10b-----|
E|-5-----3---------------------5-----3--------------------5-----3------------------------|

e|----------------------------|
B|----------------------------|
G|-------------11b-----14-----|
D|-7-----5----------x8-----x8-|
A|-7--x8-5--x8-9-b-----12-----|
E|-5-----3--------------------|

Guitar 2           V Bend slightly              V Bend slightly              V Bend slightly V
e|-----------------------------------------------------------------------------------------------|
B|---------------------------------.------.------------------------------------------------------|
G|-5p2222222-5~-4~-11b-----10-----14-----14--x4-11b-----10-----14------12-----11b-----11-12b-----|
D|----------------------x8-----x8-----x4-------------x8-----x8-----x8------x8------x8---------x7-|
A|-----------------9-b-----8------12------------9-b-----8------12------10-----9-b-----9--10b-----|
E|-----------------------------------------------------------------------------------------------|

e|-------------------------------|
B|-------------------------------|
G|-14------12-----11b-----14-----|
D|-----x8------x8------x8-----x8-|
A|-12------10-----9-b-----12-----|
E|-------------------------------|

Repeat:
Chorus - Guitar 2 is the one played in the first chorus

Outro (light distortion and delay, guitar 1 only):
e|----------------------------------------------------------0~-------|
B|-1~----------1~-----------1~---111~----11-1~--11-3~----1~-1~-------|
G|-2~----------2~---2~---2~-0~---000~----00-0~--00-0~----0~-2~-------|
D|-2~-----------------------0~---000~----00-0~--00-0~-------2~-------|
A|-0~----------3~---3~---3~------------------------------3~-0~-------|
E|--------------------------3~---333~----33-2~--22-2~----------------|

            
            
Suggest correction
Creating personal tab
Creating personal tab
You can edit any tab online and save it as your Personal.

You can edit, replace or remove any tab part or add personal notes – all changes will be seen only by you.

Personal tabs can be accessed anytime from any device, even offline.
Learn more »
Give kudos to tab author, rate the tab!
1 2 3 4 5
comments
print report bad tab
guest
You may want to rate the tab now too:
select rating
Wanna post a correction for this tab? Suggest correction