Oops, an error
Loading. Please wait.

Monster tab

version 3
version 3

Whole song

37 views 1 this week
no commentswrite comment
1 2 3 4 5
3 more votes to show rating
add to favorites
×
Save as Personal and add changes to this tab that will be seen only by you. Learn more ›
×
You can save this tab as Personal to edit and correct it or add notes. All changes will be seen only by you. Learn more »
launch autoscroll
font size
0
reset
how to read this tab
guitar tuner
edit
Autoscroll
slow
fast
+/-
esc
set tempo
stop
Artist: The Almost
Song: Monster
Album: Monster Monster 
Tabbed by: gustavoaraujo999@hotmail.com
Tuning: Standard (EADGBE)

**Solo is at the end.

0:09
e|--------------------------------|
B|--------------------------------|
G|-7b9---9/12\9--7b9----9br7-5----|
D|-----------------------------7--|
A|--------------------------------|
E|--------------------------------|

0:37
e|-------------------------------------------------------------|
B|---8b10---8-------10b12--10--8-------------------------------|
G|--x--------------x------------------7b9br7-5-----------------|
D|-x--------------x----------------------------7---------------|
A|-------------------------------------------------------------|
E|-------------------------------------------------------------|

0:52 / 0:58 / 1:07
e|----------------------|--------------|-------------------------------|
B|----------------------|--------------|-------------------------------|
G|-----0h2---2p0---0h2--|-4b5br4-------|-------------------------------|
D|-0h2-----------2------|--------7-5/7-|-5/7--5------7-----7-----------|
A|----------------------|--------------|---------5/7---5/7----7\5--3p0-|
E|----------------------|--------------|-------------------------------|

1:13
e|----------|----------------|---------------------------------|
B|----------|----------------|-8b10-8------------10------------|
G|----------|--4br-----------|---------7-----7/9----\7---5-----|
D|---5-5h7--|-------7--5/7---|-------------------------------7-|
A|--7-------|----------------|---------------------------------|
E|-5--------|----------------|---------------------------------|

1:22
e|---------------------------|
B|---------------------------|
G|---------------------------|
D|-2-5-2-5-2-5-2-5-2-5/7-----|
A|---------------------------|
E|---------------------------|


1:33 / 1:42 / 1:50
|-12*--|-----|-----------------------------------------|
|------|-----|-8b10br8b10------------------------------|
|------|-----|----------------------------2------------|
|------|-5b--|------5-5h7-5h7-7p5-5h7--0h2-2p0---------|
|------|-----|-------------------7-------------3-0-----|
|------|-----|-------------------------------------3\5-|

1:50
e|-------------------------------------------------------------|
B|-8b10br8b10--------------------------------------------------|
G|-------------------------------------------------------------|
D|--------------------5h7-5h7-----7-5---5h7---------7----------|
A|------------------7-----------------7---------5/7---7\5-3p0--|
E|----------------5-------------------------------------------3/5-|
 
2:02
e|---------------------------|
B|---------------------------|
G|------7-7h9--9p7---7h9-----|
D|-7-10------------7---------|
A|---------------------------|
E|---------------------------|

2:10
e|------------------------------------------|
B|-12b13br12b12---10b12br10b12---8b10br8b10-|
G|------------------------------------------|
D|------------------------------------------|
A|------------------------------------------|
E|------------------------------------------|

2:20
e|---------------------------|
B|---------8--10--12b13------|
G|---9b10--------------------|
D|--x------------------------|
A|-x-------------------------|
E|---------------------------|
 
2:34
e|--------------------------------------------|
B|--------------------------------------------|
G|--------------------------------------------|
D|-5-----4/5----4/5--4/5--------5---x-5/7--5--|
A|---5/7--------------------5/7---7-----------|
E|--------------------------------------------|

2:50
e|---------------------------------------|
B|------8--8/10---10/12--13--12\10--8----|
G|-9-10----------------------------------|
D|---------------------------------------|
A|---------------------------------------|
E|---------------------------------------|

3:00
e|--------------------|-----------------------------------------|
B|---8b10----8b10-----|------10br8------------------------------|
G|--x-----------------|------------9-7b9---7b9------------------|
D|-x------------------|-----------------------------------------|
A|--------------------|-----------------------------------------|
E|--------------------|-----------------------------------------|


3:12 /3:21 / 3:32
e|----------------------|--------------|-------------------------------|
B|----------------------|--------------|-------------------------------|
G|-----0h2---2p0---0h2--|-4b5br4-------|-------------------------------|
D|-0h2-----------2------|--------7-5/7-|-5/7--5------7-----7-----------|
A|----------------------|--------------|---------5/7---5/7----7\5--3p0-|
E|----------------------|--------------|-------------------------------|

e|---------------------------|
B|-8b10---8------------------|
G|-----------9---------------|
D|---------------------------|
A|---------------------------|
E|---------------------------|

==== Solo ====

3:46
e|-15b17--15b17--15b17--15b17br15------15b17--15b17-------------------|
B|--------------------------------17----------------13b15--15--13-----|
G|----------------------------------------------------------------14--|
D|--------------------------------------------------------------------|
A|--------------------------------------------------------------------|
E|--------------------------------------------------------------------|

e|----------------------------------------------------------------------------|
B|----------------------13-15-15b17---------13-15-15b17--------13-15b17-15b17-|
G|-12b14--12b14---12/14---------------12/14--------------12/14----------------|
D|----------------------------------------------------------------------------|
A|----------------------------------------------------------------------------|
E|----------------------------------------------------------------------------|

4:00
e|------------15---------------15----------------------------------|
B|-15b17---17----17-15b17---17----17-15b17-----15b17-15b17-13------|
G|------------------------------------------------------------14---|
D|-----------------------------------------------------------------|
A|-----------------------------------------------------------------|
E|-----------------------------------------------------------------|

e|-------------------------------------------------------------|
B|-------------------------------------------------------------|
G|-12b14---12----7b9br7-5-----------------------------5b7------|
D|------------------------7---5b7-7-7---9b10br9-7--------------|
A|-------------------------------------------------------------|
E|-------------------------------------------------------------|


4:15
e|-------------------------------------------------------------|
B|-------------------------------------------------------------|
G|-7b9---7b9--7b9--7b9------11b12br11--9-9---11b12br11-9-9-----|
D|-------------------------------------------------------------|
A|-------------------------------------------------------------|
E|-------------------------------------------------------------|

e|-----------------------------------14b15-----15-15b17br15-------------------|
B|--------12----13----17b15-13-15b17------------------------17-15b17b15-13----|
G|-7/9/12------------------------------------------------------------------14-|
D|-----------14----14---------------------------------------------------------|
A|----------------------------------------------------------------------------|
E|----------------------------------------------------------------------------|

4:31
e|-------------------------------------------------------------|
B|-------------------------------------------------------------|
G|-12b14rb12----12b14br12----12b14br12----12b14br12------------|
D|-----------14-----------14-----------14-----------12/-14-----|
A|-------------------------------------------------------------|
E|-------------------------------------------------------------|

e|-----------------------------------------------------------------|
B|--------------------------------------------------12b13br12------|
G|-12b14rb12----12b14br12----12b14br12----12b14br12------------14--|
D|-----------14-----------14-----------14--------------------------|
A|-----------------------------------------------------------------|
E|-----------------------------------------------------------------|

4:45
e|-------------------------|
B|---------12---13------15-|
G|-12b14------------14-----|
D|-------------------------|
A|-------------------------|
E|-------------------------|

e|----------------------------------------------------------------------------|
B|-13----13----13----13----13----12---------------------------8-------8/10-12-|
G|----14----14----14----14----14----14-15-12--12b14br12---7b9---9---9---------|
D|----------------------------------------------------------------------------|
A|----------------------------------------------------------------------------|
E|----------------------------------------------------------------------------|

4:58
e|-----------------------------------14b15----------------15b17|
B|-12b13br12----15b17---12b13br12------------12b13br12---------|
G|-----------14-------------------14-------------------14------|
D|-------------------------------------------------------------|
A|-------------------------------------------------------------|
E|-------------------------------------------------------------|

e|-15b17-15b17---17-------17-----------------------------------|
B|------------------15b17----15b17-----------------------------|
G|-------------------------------------------------------------|
D|-------------------------------------------------------------|
A|-------------------------------------------------------------|
E|-------------------------------------------------------------|


4:15
e|-17-------17-------17-------17-------17-------17-------17------|
B|----15b17----15b17----15b17----15b17----15b17----15b17----15b17|
G|---------------------------------------------------------------|
D|---------------------------------------------------------------|
A|---------------------------------------------------------------|
E|---------------------------------------------------------------|

e|-17-17-17\15---15-15-15\12---12-12-12----12/15\12------------|
B|-------------------------------------------------------------|
G|-------------------------------------------------------------|
D|-------------------------------------------------------------|
A|-------------------------------------------------------------|
E|-------------------------------------------------------------|

5:22
e|-------------------------------------------------------------|
B|-15b17----15-13----13b15---13--------------------------------|
G|---------------------------------12b14--12-------------------|
D|-------------------------------------------14---12b14br12----|
A|----------------------------------------------------------15-|
E|-------------------------------------------------------------|

5:27
e|-------------------------------------------------------------|
B|----------15b17---------15b17--------15b17-------------------|
G|-12b14-14---------12/14--------12/14-------------------------|
D|-------------------------------------------------------------|
A|-------------------------------------------------------------|
E|-------------------------------------------------------------|

e|--------------------------14/15---14-------------------------|
B|-------15b17-----15b17-----------------17--------------------|
G|-12b14--------14---------------------------------------------|
D|-------------------------------------------------------------|
A|-------------------------------------------------------------|
E|-------------------------------------------------------------|

5:37
e|-17---15---14------------------------------------------------|
B|----------------17---15-----17-15----------------------------|
G|------------------------------------14-----------------------|
D|-------------------------------------------------------------|
A|-------------------------------------------------------------|
E|-------------------------------------------------------------|

e|--------------------------15------15/17---15b17--15b17--15b17-|
B|------------------15/17--------------------------------------|
G|-12/14---12/14-----------------------------------------------|
D|-------------------------------------------------------------|
A|-------------------------------------------------------------|
E|-------------------------------------------------------------|

e|-17--19b20br19-17---17---15--15b17~--------------------------|
B|-------------------------------------------------------------|
G|-------------------------------------------------------------|
D|-------------------------------------------------------------|
A|-------------------------------------------------------------|
E|-------------------------------------------------------------|

Thanks for reading, comments and ratings are welcome!


==== Legend ====

/ = slide
h = hammer-on
p = pull-off
b = bend
br = bend release


            
            
Suggest correction
Creating personal tab
Creating personal tab
You can edit any tab online and save it as your Personal.

You can edit, replace or remove any tab part or add personal notes – all changes will be seen only by you.

Personal tabs can be accessed anytime from any device, even offline.
Learn more »
Give kudos to tab author, rate the tab!
1 2 3 4 5
comments
print report bad tab
guest
You may want to rate the tab now too:
select rating
Wanna post a correction for this tab? Suggest correction