Oops, an error
Loading. Please wait.

Never Say I Told You So Bass Tab

466 views 1 this week
no commentswrite comment
1 2 3 4 5
3 more votes to show rating
add to favorites
launch autoscroll
font size
0
reset
guitar tuner
Autoscroll
slow
fast
+/-
esc
set tempo
stop
Help us to improve Ultimate-Guitar.com Take our survey!
×
Author
-------------------------------------------------------------------------------
		   Never Say, "I Told You So" - The Almost
-------------------------------------------------------------------------------

 Tabbed By :dvanwyk 
 Tuning:Drop D

 Intro x2
G|-----------------------------------------------------------------|
D|-----------------------------------------------------------------|
A|---------------------------------------1-1-----0~--1-1-----0~----|
D|33333333-00000000-33333333-00000000-xx-----0-0---------0-0-------|

 Verse x2
G|-------------------------------------------------------------------|
D|-------------------------------------------------------------------|
A|---------------------------------------------------1-1-----00~-----|
D|3-3-33-3-0-0-0-0-3-3-33-3-0-0-0-0-3-3-33-3-0-0-0-0-----0-0---------|

 Pre-chorus
G|------------------|
D|------------------|
A|1~------1~--------|
D|------------------|

 Chorus x2
G|----------------------------------------------|
D|----------------------------------------------|
A|----------------------------------------------|
D|33333333-55555555-00000000-88888888-----------|

 Verse
G|-------------------------------------------------|
D|-------------------------------------------------|
A|----------------------------------1-1-----00~----|
D|3-3-33-3-0-0-0-0-3-3-33-3-0-0-0-0-----0-0--------|

G|-------------------------------------------------|
D|-------------------------------------------------|
A|----------------------------------1-1-----00~----|
D|3-3-33-3-0-0-0-0-3-3-33-3-5-5-5-5-----0-0--------|

 Pre-Chorus
G|-------------------------|
D|-------------------------|
A|1~----1~-----1/33333-----|
D|-------------------------|

 Chorus x2

 Bridge (1's not 11's)
G|--------------------------------------------|
D|--------------------------------------------|
A|33333333-11111111-33333333-0-1111111--------|
D|--------------------------------------------|

 Pause

 Chorus x1

 Outro x4
G|--------------------|
D|--------------------|
A|1-1-----00~---------|
D|----0-0-------------|
Suggest correction
Give kudos to tab author, rate the tab!
1 2 3 4 5
comments
print report bad tab
guest
You may want to rate the tab now too:
select rating
Wanna post a correction for this tab? Suggest correction