Oops, an error
Loading. Please wait.

Never Say I Told You So Tab

2,743 views 1 this week
no commentswrite comment
1 2 3 4 5
x 6
add to favorites
launch autoscroll
font size
0
reset
how to read this tab
guitar tuner
Autoscroll
slow
fast
+/-
esc
set tempo
stop
Help us to improve Ultimate-Guitar.com Take our survey!
×
Author
Song: Never Say I Told You So
Artist: The Almost
Album: Southern Weather
Tabber: Shizawn
Tuning: Drop D (e b g d a D)

I tabbed this out as a request for some people and i hope you enjoy! It's 100% correct! 
Don't forget to rate! Thanks!

Intro
|----------------------------------------------------------------------|
|----------------------------------------------------------------------|
|----------------------------------------------------------------------|
|---3-3-3-3-3-3-3-3-2-2-2-2-2-2-2-2---x2--x-10-10-0-0-7-7-7-7--x2------|
|---3-3-3-3-3-3-3-3-3-3-3-3-3-3-3-3-------x--8--8-0-0-8-8-8-8----------|
|---3-3-3-3-3-3-3-3-2-2-2-2-2-2-2-2-------x--8--8-0-0-7-7-7-7----------|

Verse
|-------------|----------------------------------|-------------------------|
|-------------|----------------------------------|-------------------------|
|-------------|----------------------------------|-------------------------|
|-------------|--3--3--3-3-3-3-2--2--2-2-2-2--x3-|-x-10-10-0-0-7-7-7-7--x2-|
|--8---7-7----|--3--3--3-3-3-3-3--3--3-3-3-3-----|-x--8--8-0-0-8-8-8-8-----|
|----0-----10-|--3--3--3-3-3-3-2--2--2-2-2-2-----|-x--8--8-0-0-7-7-7-7-----|
     +
Verse (con't)
|----------------------------------|------------------------------------|
|----------------------------------|------------------------------------|
|----------------------------------|------------------------------------|
|--3--3--3-3-3-3-2--2--2-2-2-2--x3-|-x-10-10-0-0-7-7-7-7-10~--7-7-10~---|
|--3--3--3-3-3-3-3--3--3-3-3-3-----|-x--8--8-0-0-8-8-8-8--8~--7-7--8~---|
|--3--3--3-3-3-3-2--2--2-2-2-2-----|-x--8--8-0-0-7-7-7-7--8~--7-7--8~---|

Chorus (Rhythm)
|----------------------------------------------------|
|----------------------------------------------------|
|----------------------------------------------------|
|--3-------5-------0-------10------------------(x2)--|
|--3--x16--5--x16--0--x16---8--x16-------------------|
|--3-------5-------0--------8------------------------|

Chorus 1 (Lead)
|----------------------------------------------------------------|
|----------------------------------------------------------------|
|----------------------------------------------------------------|
|---7-8-10~-7-8-10~-7-8-10---x3---10~-8~-7~-8~-8-7---------(x2)--|
|--------------------------------------------------8-------------|
|----------------------------------------------------------------|

Verse

Chorus (Different Lead)

Chorus 2 (Lead)
|----------------------------------------------------------------|
|----------------------------------------------------------------|
|---7-9-10~-7-9-10~-7-9-10---x3---10~-9~-7~-9~-9-7---------(x2)--|
|--------------------------------------------------10------------|
|----------------------------------------------------------------|
|----------------------------------------------------------------|

Interlude (Guitar 1)
|--------------------------------------------------------------|
|--------------------------------------------------------------|
|---9--9--9--9--9--9--9--9--10--10--10--10--10--10--10--10-----|
|---x--x--x--x--x--x--x--x---x---x---x---x---x---x---x---x-----|
|---7--7--7--7--7--7--7--7---8---8---8---8---8---8---8---8-----|
|--------------------------------------------------------------|

Interlude (Guitar 1)(con't)
|-----------------------------------------------------------------|
|-----------------------------------------------------------------|
|---9--9--9--9--9--9--9--9--12--12--12--1212-14-14-14-14-14-14-14-|
|---x--x--x--x--x--x--x--x---x---x---x---x-x--x--x--x--x--x--x--x-|
|---7--7--7--7--7--7--7--7--10--10--10--1010-12-12-12-12-12-12-12-|
|-----------------------------------------------------------------|

Interlude (Guitar 2)
|-------------------------------|----------------|
|-------------------------------|----------------|
|-------------------------------|----------------|
|---7-7-7-8----8-7-8-7-8-7-8-10-|--7-7-8~--------|
|---x-x-x-x----x-x-x-x-x-x-x--x-|--7-7-8~--------|
|---7-7-7-8----8-7-8-7-8-7-8-10-|--7-7-8~--------|

Breakdown
|-----------------------------------------------|
|-----------------------------------------------|
|-----------------------------------------------|
|---10-------7-----/8------------------(x2)-----|
|---10--x16--7--x2-/8--x16----------------------|
|---10-------7-----/8---------------------------|

Chorus

Outro
|-----------------------------------------------|
|-----------------------------------------------|
|-----------------------------------------------|
|--10-10-0-0-7-7-7-7--------------(x2)----------|
|---8--8-0-0-8-8-8-8----------------------------|
|---8--8-0-0-7-7-7-7----------------------------|

RATE RATE RATE!!! THANKS!
ROCK ON!
Suggest correction
comments
print report bad tab
guest
You may want to rate the tab now too:
select rating
Wanna post a correction for this tab? Suggest correction