Oops, an error
Loading. Please wait.

Say This Sooner Tab

version 1
version 1

Acoustic

Interactive

15,683 views 12 this week
1 commentread comment
1 2 3 4 5
excellent!
x 4
add to favorites
launch autoscroll
font size
0
reset
how to read this tab
guitar tuner
Autoscroll
slow
fast
+/-
esc
set tempo
stop
Help us to improve Ultimate-Guitar.com Take our survey!
×
Author
This is a pretty easy song.  Every single tab that I've looked at has been extremely 
but nobody can seem to get the chorus.

Basically this is exactly how Aaron plays it live when he's doing an acoustic set, so 
about 99% sure that it's the same as the album.
Then again, he could change it up a bit with each performance.

Tuning is drop D.

Here we go.


    (Palm muting)
e|-xxxxxxxxxxxxxxxxxxxxxxxxxxxxxxxx--
B|-xxxxxxxxxxxxxxxxxxxxxxxxxxxxxxxx--
G|-xxxxxxxxxxxxxxxxxxxxxxxxxxxxxxxx-- (4 measures)
D|-xxxxxxxxxxxxxxxxxxxxxxxxxxxxxxxx--
A|-xxxxxxxxxxxxxxxxxxxxxxxxxxxxxxxx--
D|-xxxxxxxxxxxxxxxxxxxxxxxxxxxxxxxx--

e|------------------------------------------------------------------|
B|------------------------------------------------------------------|
G|------------------------------------------------------------------|
D|-2-22-2225-55-5550-00-000-000-0002-22-2225-55-5550-00-000-000-xxx-| (x2)
A|-2-22-2225-55-5550-00-000-000-0002-22-2225-55-5550-00-000-000-xxx-|
D|-2-22-2225-55-5550-00-000-000-0002-22-2225-55-5550-00-000-000-xxx-|

*REPEAT*
e|--------------------------------|
B|--------------------------------|
G|--------------------------------|
D|-xxxxxxxx-2-xxxxxxxx-2-xxxxxxxx-|
A|-xxxxxxxx-2-xxxxxxxx-2-xxxxxxxx-|
D|-xxxxxxxx-2-xxxxxxxx-2-xxxxxxxx-|


e|----------------------------------------------------|
B|----------------------------------------------------|
G|----------------------------------------------------|
D|-2-xxxx-5-xxxx-0-xxxxxxxx-2-xxxx-5-xxxx-0-xxxxxxxxx-|
A|-2-xxxx-5-xxxx-0-xxxxxxxx-2-xxxx-5-xxxx-0-xxxxxxxxx-|
D|-2-xxxx-5-xxxx-0-xxxxxxxx-2-xxxx-5-xxxx-0-xxxxxxxxx-|


(end on)
e|------------------------------------|
B|------------------------------------|
G|------------------------------------|
D|-2-22-222-5-55-555-0-00-000-000-000-|
A|-2-22-222-5-55-555-0-00-000-000-000-|
D|-2-22-222-5-55-555-0-00-000-000-000-|


(Chord progression on chorus:)

  Csus2    A7    Bm    Em7
e|-3-------3-----3-----3-|
B|-3-------3-----3-----3-|
G|-0-------0-----0-----x-|
D|-x-------2-----0-----2-|
A|-3-------0-----2-----2-|
D|---------------------2-|

(Chorus strumming)
e|-3-33-333-3-33-333-3-33-333-333-333-3-33-333-3-33-333-x-xxxxxx-xxxxx-|
B|-3-33-333-3-33-333-3-33-333-333-333-3-33-333-3-33-333-x-xxxxxx-xxxxx-|
G|-0-00-000-0-00-000-0-00-000-xxx-xxx-0-00-000-0-00-000-x-xxxxxx-xxxxx-|
D|-x-xx-xxx-2-22-222-0-00-000-222-222-x-xx-xxx-2-22-222-0-222222-xxxxx-|
A|-3-33-333-0-00-000-2-22-222-222-222-3-33-333-0-00-000-0-222222-xxxxx-|
D|----------------------------222-222-------------------0-222222-xxxxx-|

e|-3-33-333-3-33-333-3-33-333-333-333-3-33-333-3-33-333-|
B|-3-33-333-3-33-333-3-33-333-333-333-3-33-333-3-33-333-|
G|-0-00-000-0-00-000-0-00-000-xxx-xxx-0-00-000-0-00-000-|
D|-x-xx-xxx-2-22-222-0-00-000-222-222-x-xx-xxx-2-22-222-|
A|-3-33-333-0-00-000-2-22-222-222-222-3-33-333-0-00-000-|
D|----------------------------222-222-------------------|

(Ends on)
e|-----------------------------------|
B|-----------------------------------|
G|-----------------------------------|  (x2)
D|-2-22-2225-55-555-0-00-000-000-000-|
A|-2-22-2225-55-555-0-00-000-000-000-|
D|-2-22-2225-55-555-0-00-000-000-000-|


REPEAT EVERYTHING BELOW THE "*REPEAT*"

(Breakdown-ish thing)
He chills it down, so its just very softly:

e|-------------------------------------|
B|-------------------------------------|
G|-------------------------------------|
D|-222222-0-222222-0-222222-0-222222-0-|
A|-222222-0-222222-0-222222-0-222222-0-|
D|-222222-0-222222-0-222222-0-222222-0-|

(Bridge)
e|-3~~~~3~~~~3-33-333-333-333------------------2-22-222-222-222-3-33-333-|
B|-3~~~~3~~~~3-33-333-333-333-8-88-888-888-888-x-xx-xxx-xxx-xxx-3-33-333-|
G|-0~~~~0~~~~0-00-000-000-000-7-77-777-777-777-2-22-222-222-222-x-xx-xxx-|
D|-x----x----x-xx-xxx-xxx-xxx-5-55-555-555-555-1-11-111-111-111-2-22-222-|
A|-3~~~~3~~~~3-33-333-333-333-5-55-555-555-555-2-22-222-222-222-2-22-222-|
D|--------------------------------------------------------------2-22-222-|


The ending is more of the same.

Hope this helps!
If anything is super wrong, let me know at SnakesInARoom@hotmail.com
Suggest correction
comments
print report bad tab
1 comment total.
0 reply
iTzVeLoCiTy 61 wrote on June 29 2009, 12:02 am

Sorry! The bridge is supposed to be:

e|-3~~~~3~~~~3-33-333-333-333------------------2-22-222-222-222-3-33-333-|
B|-3~~~~3~~~~3-33-333-333-333-8-88-888-888-888-x-xx-xxx-xxx-xxx-3-33-333-|
G|-0~~~~0~~~~0-00-000-000-000-7-77-777-777-777-2-22-222-222-222-x-xx-xxx-|
D|-x----x----x-xx-xxx-xxx-xxx-5-55-555-555-555-1-11-111-111-111-2-22-222-|
A|-3~~~~3~~~~3-33-333-333-333-5-55-555-555-555-2-22-222-222-222-2-22-222-|
D|----------------------------5-55-555-555-555------------------2-22-222-|

guest
You may want to rate the tab now too:
select rating
Wanna post a correction for this tab? Suggest correction