Oops, an error
Loading. Please wait.

Say This Sooner Tab

version 1
version 1

Intro

Interactive

19,705 views 1 this week
9 commentsread comments
1 2 3 4 5
accurate
x 7
add to favorites
launch autoscroll
font size
0
reset
how to read this tab
guitar tuner
Autoscroll
slow
fast
+/-
esc
set tempo
stop
Help us to improve Ultimate-Guitar.com Take our survey!
×
Author
The Almost
Say this sooner
Southern Weather

My 1st tab. mofro230@hotmail.com
Drop D.

-Intro-
e--------------------------------------------------------|
B--------------------------------------------------------|
G--------------------------------------------------------|
D-222----555----000--0-0-0-------------------------------|
A-222----555----000--0-0-0-------------------------------|
E-222----555----000--0-0-0-------------------------------|x2

-String scratches-
Fill in the rest for your self its easy just repeating itself and diff intervals basically.





(Chorus)
e--------------------------------------------------------|
B--------------------------------------------------------|
G--------------------------------------------------------|
D-101010--777--121212--555-------------------------------|
A-101010--777--121212--555-------------------------------|
E-101010--777--121212--555-------------------------------|x2
(This sounds a lil off I think but closest I'm able to get sorry.)




(Heres the little build up part case you have trouble trying to figure it.)

e----------------------------------------------------------|
B----------------------------------------------------------|
G-0--22222222-0~-------------------------------------------|
D-0--22222222-0~-------------------------------------------|
A-0--22222222-0~-------------------------------------------|

Simple and fun.
Comment if you want more.
Suggest correction
comments
print report bad tab
9 comments total. Showing first comments.
0 reply
Gibson_Rocker 30 wrote on March 26 2007, 07:59 pm

pretty good

the breakdown is like this

e--------------------------------------------------------|
B--------------------------------------------------------|
G--------------------------------------------------------|
D-2-----2----0------------------------|
A-2-----2----0-------------------------| x however much
D-2-----2----0-------------------------|

pretty easy song. you can pretty much make the whole song off the E, D, and G bar chords

0 reply
Lycaelon 51 wrote on March 28 2007, 10:20 pm

What's The Higher Part???...I Def. Hear A Higher Part In The Intro And The Rest Of The Song...Please Figure It Out...Cause Im Too Damn Lazy Too...lol

0 reply
that_i_am 89 wrote on April 2 2007, 03:17 pm

pretty good

guest
You may want to rate the tab now too:
select rating
Please do not post tabs as comments. Select "correction" instead!