Oops, an error
Loading. Please wait.

Say This Sooner No One Will Ever See Things The Way I Do Bass Tab

version 1
version 1

Whole song

Interactive

3,212 views 1 this week
5 commentsread comments
1 2 3 4 5
excellent!
x 3
add to favorites
launch autoscroll
font size
0
reset
guitar tuner
Tab Pro tools
  • play this tab
  • loop segment
  • change instrument
  • show fretboard
  • metronome
×
Best way to learn
"Say This Sooner No One Will Ever See Things The Way I Do"
Autoscroll
slow
fast
+/-
esc
set tempo
stop
Contributor
Difficulty
Tuning
intermediate
D A D G B E
   _______________________________________________________________________
  |Say This Sooner (No One Will Ever See Things The Way I Do) - The Almost|
  |_______________________________________________________________________|

Tabbed By: Brian
E-mail: cactaur1993@yahoo.com

Song: Say This Sooner (No One Will Ever See Things The Way I Do)
Artist: The Almost
Album: Southern Weather

Key:
~~~~~ = Let the note ring
/ = Slide up on string
\ = Slide down on string

Intro (Begins with acoustic guitar and drums)
G|-----------------------------------------------------------------|
D|-----------------------------------------------------------------|
A|-----------------------------------------------------------------|
D|2-2-2-2-5-5-5-5-0-0-0-0-0-0-0-0--2-2-2-2-5-5-5-5-0-0-0-0-0-0-0-0-|

G|-----------------------------------------------------------------|
D|-----------------------------------------------------------------|
A|-----------------------------------------------------------------|
D|2-2-2-2-5-5-5-5-0-0-0-0-0-0-0-0--2-2-2-2-5-5-5-5-0-0-0-0-0-0-0-0-|

G|--------------|\
D|2-3-5-7-5-3-2-| \ Play these notes quickly
A|--------------| /
D|--------------|/

Verse 1 (No bass at first)(Only vocals, acoustic guitar, and drums at first)
G|-------------------------------------------------------------------------|
D|----------------------------------------------------------------22-44-55-|
A|-------------------------------------------------------------------------|
D|22-45-20--22-45-20--0-1-0-1-0-1-0-1-22-45-20-2-2-2-2-5-5-5-5-00----------|

Chorus 1
G|------------------------------------------------------------|
D|------------------------------------------------------------|
A|------------------------------------------------------------|
D|2-2-2-2-0-0-0-0-5-5-5-5-7-7-7-7-2-2-2-2-0-0-0-0-0-2-2-0-2-2-|

G|------------------------------------------------|
D|------------------------------------------------|
A|------------------------------------------------|
D|2-2-2-2-0-0-0-0-5-5-5-5-7-7-7-7-2-2-2-2-0-0-0-0-|

G|------------------------------------------------------------------|
D|------------------------------------------------------------------|
A|------------------------------------------------------------------|
D|2-2-2-2-5-5-5-5-0-0-0-0-0-0-0-0--2-2-2-2-5-5-5-5-0-0-0-0-0-0-0-0-2|

Break (Vocals, acoustic guitar, and drums)

Verse 2 (No bass at first)(Only vocals, acoustic guitar, and drums at first)
G|-------------------------------------------------------------------------|
D|----------------------------------------------------------------22-44-55-|
A|-------------------------------------------------------------------------|
D|22-45-20--22-45-20--0-1-0-1-0-1-0-1-22-45-20-2-2-2-2-5-5-5-5-00----------|

Chorus 2
G|------------------------------------------------------------|
D|------------------------------------------------------------|
A|------------------------------------------------------------|
D|2-2-2-2-0-0-0-0-5-5-5-5-7-7-7-7-2-2-2-2-0-0-0-0-0-2-2-0-2-2-|

G|---------------------------------------------|
D|---------------------------------------------|
A|---------------------------------------------|
D|2-2-2-2-0-0-0-0-5-5-5-5-7-7-7-7-2-2-2-2/17\2-|

Bridge
G|--------------------------------------------------------------------|
D|--------------------------------------------------------------------|
A|--------------------------------------------------------------------|
D|2-2-2-2-2-2-0~~~-2-2-2-2-2-2-0~~~-2-2-2-2-2-2-0~~~-2-2-2-2-2-2-0~~~-|

G|---------------------------------------------------------------|
D|---------------------------------------------------------------|
A|---------------------------------------------------------------|
D|2-2-0~-2-2-0~-2-2/12-2-2-0~-2-2-0~-2-2-0~-2-2-0~-2-2-0~-2~~~~~-|

Break (Vocals and Drums)

Final Chorus
G|------------------------------------------------------------|
D|------------------------------------------------------------|
A|------------------------------------------------------------|
D|2-2-2-2-0-0-0-0-5-5-5-5-7-7-7-7-2-2-2-2-0-0-0-0-0-2-2-0-2-2-|

G|------------------------------------------------|
D|------------------------------------------------|
A|------------------------------------------------|
D|2-2-2-2-0-0-0-0-5-5-5-5-7-7-7-7-2-2-2-2-0-0-0-0-|

G|----------------------------------------------------------------|
D|----------------------------------------------------------------|
A|----------------------------------------------------------------|
D|2-2-2-2-2-2-0~~~-2-2-2-2-2-2-0~~~-2-2-2-2-2-2-0~~~-2-2-0-2~~~~~-|

That's all and I hope you enjoyed this tab!
By the way, the lead singer of The Almost is the drummer for Underoath!
Also, check out The Almost's album when it comes out on April 3rd! :)
comments
We did not receive enough feedback on this tab! Please rate:
print report bad tab
1 2 3 4 5
5 comments total. Showing first comments. show 1 bad comment
+1 reply
Lycaelon wrote on March 31 2007, 11:44 am

The Chorus Is Wrong...I'm Trying To Figure It Out Right Now!!!

+1 reply
that_i_am wrote on April 3 2007, 09:39 pm

I don't know about the chorus but everything else seems right.

I want to post or [tab]
guest
You may want to rate the tab now too:
select rating
Please do not post tabs as comments. Select "correction" instead!