Oops, an error
Loading. Please wait.

Say This Sooner Bass Tab

version 2
version 2

Whole song

Interactive

2,370 views 3 this week
no commentswrite comment
1 2 3 4 5
3 more votes to show rating
add to favorites
launch autoscroll
font size
0
reset
guitar tuner
Autoscroll
slow
fast
+/-
esc
set tempo
stop
Help us to improve Ultimate-Guitar.com Take our survey!
×
say this soonner-the almost


Key:
~~~~~ = Let the note ring
/ = Slide up on string
\ = Slide down on string
h = HAMMER ONN'S
P = PULL OFFS
Intro1 NEARLY TWO BARS of acoustic guitar and drums)

intro2
  8+ 1+2+3+4+5+6+7+8+ 1+2+3+4+5+6+7+8+ 1+2+3+4+5+6+7+8+ 1+2+3+4+5+6+7+8+
G|--|----------------|----------------|----------------|----------0------|
D|--|----------------|----------------|----------------|-------023-323---|
A|--|----------------|----------------|----------------|-----------------|
D|x0|2-2-2-225-5-5-05|0-0-0-000-0-0-x0|2-2-2-225-5-5-05|0-0-0~~----------|
    h       h      p                   h       h                hhhpph~


    1+2+3+4+5+6+7+8+ 1+2+3+4+5+6+7+8+ 1+2+3+4+5+6+7+8+ 1+2+3+4+5+6+7+8+
G|--|----------------|----------------|----------------|---------------|
D|--|----------------|----------------|----------------|---------------|
A|--|----------------|----------------|----------------|---------------|
D|x0|2-2-2-225-5-5-05|0-0-0-000-0-0-x0|2-2-2-225-5-5-05|0-0-0~~0235323-|
    h       h      p                   h       h                hhhpph~

Verse 1
  1+2+3+4+5+6+7+8+ 1+2+3+4+5+6+7+8+ 1+2+3+4+5+6+7+8+ 1+2+3+4+5+6+7+8+
G|----------------|----------------|----------------|---------------|
D|----------------|----------------|----------------|---------------|
A|----------------|----------------|----------------|---------------|
D|2~~~~~~~~~~~~~~~~~~~~~~~~~~~~~~~~~~~~~~~~~~~~~~~~~~~~~~~~~~~~~~~~~x2

  1+2+3+4+5+6+7+8+ 1+2+3+4+5+6+7+8+ 1+2+3+4+5+6+7+8+ 1+2+3+4+5+6+7+8+
G|----------------|----------------|----------------|-----------------|
D|----------------|----------------|----------------|-----------------|
A|----------------|----------------|----------------|--------5-5-530--|
D|2~2-----x45-----|2-0----------x02|2-2-----x45-----|2-0--------------|       }
                                                        slam with pick

 1+2+3+4+5+6+7+8+ 1+2+3+4+5+6+7+8+ 1+2+3+4+5+6+7+8+  1+2+3+4+5+6+7+8+
G|----------------|----------------|----------------|----------------|
D|----------------|----------------|----------------|---4~~--00224455|
A|----------------|----------------|----------------|--5--5~---------|
D|2-------x45-----|2-0----------x02|2-2-2-2-5-5-5-5-|0~~~~-0---------|
                                                     this is fast
Chorus 1
  1+2+3+4+5+6+7+8+ 1+2+3+4+5+6+7+8+ 1+2+3+4+5+6+7+8+ 1+2+3+4+5+6+7+8+
G|----------------|----------------|----------------|---------------|
D|----------------|----------------|----------------|---------------|
A|33-3-3-300-0-0-0122-2-2p0--------|33-3-3-300-0-0-0|7-7-7-7-7-7-7-7|x2
D|----------------|--------22-2-2-2|----------------|---------------|
                                                     play only first time
echo break
G|----------------|----------------|
D|--------5-5-5-5-|--------4-4-4-4-|x2
A|7-7-7-7---------|5-5-5-5---------|
D|----------------|----------------|

Break (Vocals, acoustic guitar, and drums)
  1+2+3+4+5+6+7+8+ 1+2+3+4+5+6+7+8+ 1+2+3+4+5+6+7+8+ 1+2+3+4+5+6+7+8+
G|----------------|----------------|----------------|---------------|
D|----------------|----------------|----------------|---------------|
A|----------------|----------------|----------------|---------------|
D|14~~~~~~~~~~~~~~~~~~~~~~~~~~~~~~~~~~~~~~~~~~~~~~~~~~~~~~~~~~~~~~~~x2
  1+2+3+4+5+6+7+8+ 1+2+3+4+5+6+7+8+ 1+2+3+4+5+6+7+8+ 1+2+3+4+5+6+7+8+
G|----------------|----------------|----------------|-----------------|
D|----------------|----------------|----------------|-----------------|
A|----------------|----------------|----------------|--------5-5-530--|
D|2~2-----x45-----|2-0----------x02|2-2-----x45-----|2-0--------------|
                                                     slam with pick
 1+2+3+4+5+6+7+8+ 1+2+3+4+5+6+7+8+ 1+2+3+4+5+6+7+8+  1+2+3+4+5+6+7+8+
G|----------------|----------------|----------------|----------------|
D|----------------|----------------|----------------|-----4~~00224455|
A|----------------|----------------|----------------|-----5~~--------|
D|2-------x45-----|2-0----------x02|2-2-2-2-5-5-5-5-|0~~~~--0--------|
                                                     this is
Chorus 2
  1+2+3+4+5+6+7+8+ 1+2+3+4+5+6+7+8+ 1+2+3+4+5+6+7+8+ 1+2+3+4+5+6+7+8+
G|----------------|----------------|----------------|---------------|
D|----------------|----------------|----------------|---------------|
A|33-3-3-300-0-0-0122-2-2p0--------|33-3-3-300-0-0-0|7-7-7-7-7-7-7-7|x2
D|----------------|--------22-2-2-2|----------------|---------------|
                                                     play only first time
Bridge
G|----------------------------------------------------------------|
D|----------------------------------------------------------------|
A|----------------------------------------------------------------|
D|2-222-2-22-0~~~-2-222-2-22-0~~~-2-222-2-22-0~~~-2-222-2-22-0~~~-|

  1+2+3+4+5+6+7+8+ 1+2+3+4+5+6+7+8+    1+2+3+4+5+6+7+8+
G|----------------|----------------|  |----------------|do this a
D|2xx2xx0-2xx2xx0-|----------------|  |----------------|couple more time
A|----------------|----------------|  |----------------|
D|2--2--0~2--2--0~|2--2-x12/2--2-0~|  |2--2--0~2--2--0~|
                 slide twelve to zero

ok so now just play the verse/ chorus a couple more times then play


G|------------------------------------------|
D|------------                        02~~~-|
A|------------------------------------------|
D|2--2--0~--X?   THE THE FINAL  2-2-2-02~~~-|
Suggest correction
Give kudos to tab author, rate the tab!
1 2 3 4 5
comments
print report bad tab
guest
You may want to rate the tab now too:
select rating
Wanna post a correction for this tab? Suggest correction