Oops, an error
Loading. Please wait.

Southern Weather Bass Tab

version 1
version 1

Whole song

Interactive

5,351 views 3 this week
no commentswrite comment
1 2 3 4 5
accurate
x 5
add to favorites
launch autoscroll
font size
0
reset
guitar tuner
Tab Pro tools
  • play this tab
  • loop segment
  • change instrument
  • show fretboard
  • metronome
×
Best way to learn
"Southern Weather"
Autoscroll
slow
fast
+/-
esc
set tempo
stop
Drop D

Intro
G----------------------------------------|
D----------------------------------------|
A----------------------------------------|
D-999999999922222222255555555550000000000  [X2]

Verse
G-------------------------------|
D-------------------------------|
A-------------------------------|
D-9---7---2---0---9---7---2---0-|

G--------------------------------------------------------|
D--------------------------------------------------------|
A--------------------------------------------------------|
D-9999999977777722222002222200999999777777722222002222200

Pre Chorus
G-----------------|
D-----------------|
A-----------------|
D-7-------2-----5-|

Chorus
G------------------------------------------------------------------|
D------------------------------------------------------------------|
A------------------------------------------------------------------|
D-0-0-0-0-0-0-0-0-2-2-2-2-2-2-2-2-5-5-5-5-5-5-5-5-5-5-5-5-5-777799-|

G-----------------------------------------------------------------|
D-----------------------------------------------------------------|
A-----------------------------------------------------------------|
D-0000000000000000222222222222222255555555555555555555555555555555

Bridge
G----------------------------------------------------------------------|
D----------------------------------------------------------------------|
A----------------------------------------------------------------------|
D-222225500000000222225500000000022222550000000005555555555522222227770

Outtro
G------------------------|
D------------------------|
A------------------------|
D-9999--2222--7777--0000-| [X2]

G---------------|
D---------------|
A---------------|
D-999---999---0-|

Order
Intro
Verse
Pre Chorus
Chorus
Intro
Verse
Pre Chorus
Chorus
Bridge
Chorus
Outtro
comments
print report bad tab
I want to post or [tab]
guest
You may want to rate the tab now too:
select rating
Please do not post tabs as comments. Select "correction" instead!