Oops, an error
Loading. Please wait.

Southern Weather Tab

version 3
version 3

Whole song

Interactive

1,942 views 1 this week
no commentswrite comment
1 2 3 4 5
please rate
add to favorites
launch autoscroll
font size
0
reset
how to read this tab
guitar tuner
Autoscroll
slow
fast
+/-
esc
set tempo
stop
Help us to improve Ultimate-Guitar.com Take our survey!
×
Contributor
Difficulty
Tuning
intermediate
D A D G B E
i redid it cause i was board... the struming should be all right...

Tuneing: drop D

into

E: ----------------------------------------------------|
B: ----------------------------------------------------|
G: --44444444-----------------------------------777----|   Repeat twise
D: --44444444----22222222----55555555----000----777----|
A: --22222222----22222222----55555555----000----555----|
D: --------------22222222----55555555----000-----------|


when Aaron starts singing...

E: -----------------------------------------------------|
B: -----------------------------------------------------|
G: --4-4-4-4----2-2-2-2---------------------------------|play twice
D: --4-4-4-4----2-2-2-2--0---22222---0---22222----0-----| 
A: --2-2-2-2----0-0-0-0--0---22222---0---22222----0-----| then…
D: ----------------------0---22222---0---22222----0-----|

E: ---------------------------------------------------|
B: ---------------------------------------------------|
G: --444444----22222----------------------------------| play twice
D: --444444----22222---0---22222---0---22222----0-----| 
A: --222222----00000---0---22222---0---22222----0-----|
D: --------------------0---22222---0---22222----0-----|


Pre- chorus

E: ----------------------------|
B: ----------------------------|
G: ---2------------------------|   
D: ---2-----0-----5------------|
A: ---0-----0-----5------------|
D: ---------0-----5------------|
  (why don't you just go ahead and..)

chorus

E: -------------------------------------
B: -------------------------------------
G: ------------------------------------- 
D: ---0-0-0-0-0-0-0-0—-2-2-2-2-2-2-2-2--
A: ---0-0-0-0-0-0-0-0—-2-2-2-2-2-2-2-2--
D: ---0-0-0-0-0-0-0-0—-2-2-2-2-2-2-2-2--







--------------------------------------------|
--------------------------------------------|
-----------------------------2-2-2-2--------|
-5-5-5-5-5-5-5-5-5-5-5-5-5---2-2-2-2--------|
-5-5-5-5-5-5-5-5-5-5-5-5-5---0-0-0-0--------|
-5-5-5-5-5-5-5-5-5-5-5-5-5------------------|



E: ---------------------------------------------------------------|
B: ---------------------------------------------------------------|
G: ---------------------------------------------------------------|
D: ---0000000000000000—-2222222222222222---5555555555555555-—5---5|
A: ---0000000000000000—-2222222222222222---5555555555555555-—5---5|
D: ---0000000000000000—-2222222222222222---5555555555555555-—5---5|




intro again

E: ------------------------------------------|
B: ------------------------------------------|
G: --4-------------------7-------------------|   Repeat twise
D: --4----2----5----0----7-------------------|
A: --2----2----5----0----5-------------------|
D: -------2----5----0------------------------|

when Aaron starts singing... again

E: -----------------------------------------------------|
B: -----------------------------------------------------|
G: --4-4-4-4----2-2-2-2---------------------------------|play twice
D: --4-4-4-4----2-2-2-2--0---22222---0---22222----0-----| 
A: --2-2-2-2----0-0-0-0--0---22222---0---22222----0-----| then…
D: ----------------------0---22222---0---22222----0-----|

E: ---------------------------------------------------|
B: ---------------------------------------------------|
G: --444444----22222----------------------------------| play twice
D: --444444----22222---0---22222---0---22222----0-----| 
A: --222222----00000---0---22222---0---22222----0-----|
D: --------------------0---22222---0---22222----0-----|

Pre- chorus again

E: ----------------------------|
B: ----------------------------|
G: ---2------------------------|   
D: ---2-----0-----5------------|
A: ---0-----0-----5------------|
D: ---------0-----5------------|
  (why don't you just go ahead and..)

chorus again

E: -------------------------------------
B: -------------------------------------
G: ------------------------------------- 
D: ---0-0-0-0-0-0-0-0—-2-2-2-2-2-2-2-2--
A: ---0-0-0-0-0-0-0-0—-2-2-2-2-2-2-2-2--
D: ---0-0-0-0-0-0-0-0—-2-2-2-2-2-2-2-2--







--------------------------------------------|
--------------------------------------------|
-----------------------------2-2-2-2--------|
-5-5-5-5-5-5-5-5-5-5-5-5-5---2-2-2-2--------|
-5-5-5-5-5-5-5-5-5-5-5-5-5---0-0-0-0--------|
-5-5-5-5-5-5-5-5-5-5-5-5-5------------------|



E: ---------------------------------------------------------------|
B: ---------------------------------------------------------------|
G: ---------------------------------------------------------------|
D: ---0000000000000000—-2222222222222222---5555555555555555-—5---5|
A: ---0000000000000000—-2222222222222222---5555555555555555-—5---5|
D: ---0000000000000000—-2222222222222222---5555555555555555-—5---5|




not sure about this part but 

E: ------------------------------------------------------------------|
B: ------------------------------------------------------------------|
G: ----(do this about 6 times)-------------------------------2222----|   
D: ---000-^-222222--------------5555555555555555--22222222---2222----|
A: ---000---222222--------------5555555555555555--22222222---0000----|
D: ---000---222222--------------5555555555555555--22222222-----------|
  

chorus   (for the piano I palm mute then play the guitar open)

E: -------------------------------------
B: -------------------------------------
G: ------------------------------------- 
D: ---0-0-0-0-0-0-0-0—-2-2-2-2-2-2-2-2--
A: ---0-0-0-0-0-0-0-0—-2-2-2-2-2-2-2-2--
D: ---0-0-0-0-0-0-0-0—-2-2-2-2-2-2-2-2--







--------------------------------------------|
--------------------------------------------|
-----------------------------2-2-2-2--------|
-5-5-5-5-5-5-5-5-5-5-5-5-5---2-2-2-2--------|
-5-5-5-5-5-5-5-5-5-5-5-5-5---0-0-0-0--------|
-5-5-5-5-5-5-5-5-5-5-5-5-5------------------|



E: ---------------------------------------------------------------|
B: ---------------------------------------------------------------|
G: ---------------------------------------------------------------|
D: ---0000000000000000—-2222222222222222---5555555555555555-—5---5|
A: ---0000000000000000—-2222222222222222---5555555555555555-—5---5|
D: ---0000000000000000—-2222222222222222---5555555555555555--5---5|

outro (struming right)

E:-------------------------------------------------------
B:-------------------------------------------------------
G:----4444-----------------------------------------------
D:----4444----2222----5555----0000----------------------7-
A:----2222----2222----5555----0000----------------------7-
D:------------2222----5555----0000----------------------5-
                                you can blame me blame me

E:-------------------------------------------------------------------]
B:-------------------------------------------------------------------]
G:----4444-----------------------------------------------------------]
D:----4444----2222----5555----0000--------555---55555-----xxxxx-----0]
A:----2222----2222----5555----0000--------555---55555-----xxxxx-----0]
D:------------2222----5555----0000--------555---55555-----xxxxx-----0]
                                you can blame me blame me

comments
We did not receive enough feedback on this tab! Please rate:
print report bad tab
1 2 3 4 5
I want to post or [tab]
guest
You may want to rate the tab now too:
select rating
Please do not post tabs as comments. Select "correction" instead!