Oops, an error
Loading. Please wait.

Southern Weather Tab

version 4
version 4

Whole song

Interactive

10,039 views 1 this week
1 commentread comment
1 2 3 4 5
please rate
add to favorites
launch autoscroll
font size
0
reset
how to read this tab
guitar tuner
Autoscroll
slow
fast
+/-
esc
set tempo
stop
Help us to improve Ultimate-Guitar.com Take our survey!
×
Band: The Almost
Song: Southern Weather
Tabber: ALiteInTheDark

Intro (0:05):

e|-------------------------------------|------------------------------|
B|-------------------------------------|------------------------------|
G|-------------------------------------|------------------------------|
D|-------------------------------------|-----------------------9~-----|
A|-------------------------------------|-----------------------9~(2x)-|
D|--9(8x)--2(8x)--5(8x)--0(4x)--12(4x)-|--9(8x)--2(8x)--5(8x)--9~-----|

Verse 2x (Begins on the last chord of the Intro/0:16):

e|---------------------------------|
B|---------------------------------|
G|---------------------------------|
D|--9~------7~------2~------0~-----|
A|--9~(2x)--7~(2x)--2~(2x)--0~(2x)-|
D|--9~------7~------2~------0~-----|

Pre-Chorus 2x (0:27)

e|-----------------------------------------------|
B|-----------------------------------------------|
G|-----------------------------------------------|
D|--9------7------2--2-2-0-2-xx--2--2-2-0-2-xxxx-|
A|--9(8x)--7(8x)--2--2-2-0-2-xx--2--2-2-0-2-xxxx-|
D|--9------7------2--2-2-0-2-xx--2--2-2-0-2-xxxx-|

Pre-Chorus Cont'd (0:39):

e|---------------|
B|---------------|
G|---------------|
D|--7~------4-5~-|
A|--7~(3x)--4-5~-|
D|--7~------4-5~-|

Chorus (0:44):

e|------------------------------|--------------------------|
B|------------------------------|--Strum-Faster-Here-------|
G|------------------------------|--------------------------|
D|--0------2------5-------7-----|--0-------2-------5~------|
A|--0(8x)--2(8x)--5(12x)--7(3x)-|--0(16x)--2(16x)--5~(17x)-|
D|--0------2------5-------7-----|--0-------2-------5~------|

Intro 1x (1:06)
Verse 1x (1:17)
Pre-Chorus 1x (1:28)
Pre-Chorus Cont'd 1x (1:39)
Chorus 1x (1:45)

Bridge 3x (2:07):

e|----------------------|
B|----------------------|
G|---------7------------|
D|--2------7(2x)--0-----|
A|--2(3x)--5------0(6x)-|
D|--2-------------0-----|

Bridge Cont'd (2:15):

e|--------------------------|
B|--------------------------|
G|----------------3---------|
D|--5------2------3(3x)--1~-|
A|--5(8x)--2(4x)--1------1~-|
D|--5------2-------------1~-|

Piano Chorus 1x (2:21):

e|-------------|
B|-------------|
G|-------------|
D|--0~--2~--5~-|
A|--0~--2~--5~-|
D|--0~--2~--5~-|

Continue the Chorus until 3:05, then (Outro):

e|------------------------------------------|
B|------------------------------------------|
G|------------------------------------------|
D|--9~------9-2~------2-5~------5-0~------0-|
A|--9~(3x)--9-2~(3x)--2-5~(3x)--5-0~(3x)--0-|
D|--9~------9-2~------2-5~------5-0~------0-|

Outro Cont'd (3:15):

e|--------------------|
B|--------------------|
G|--------------------|
D|--7~------7~------0-|
A|--5~(3x)--5~(3x)--0-|
D|--5~------5~------0-|
Suggest correction
Give kudos to tab author, rate the tab!
1 2 3 4 5
comments
print report bad tab
1 comment total.
0 reply
Dj Tim 10 wrote on March 2 2016, 03:00 pm

Sounds good to me.

guest
You may want to rate the tab now too:
select rating
Please do not post tabs as comments. Select "correction" instead!