Oops, an error
Loading. Please wait.

Stop It Bass Tab

version 1
version 1

Whole song

549 views 1 this week
1 commentread comment
1 2 3 4 5
3 more votes to show rating
add to favorites
launch autoscroll
font size
0
reset
guitar tuner
Autoscroll
slow
fast
+/-
esc
set tempo
stop
Help us to improve Ultimate-Guitar.com Take our survey!
×
Author
Song: Stop It
Artist: The Almost
Album: Southern Weather
Tabbed by: Joe

Intro:
G:----------------------------------|
D:----------------------------------|
A:----------2>----------------------|
E:-5>---3>--------------------------|(x1)

Verse:
G:----------------------------------|
D:----------------------------------|
A:-----------2----------------------|
E:-5----3---------------------------|(x4)[first 2 times are just simple("let ring") the 
2 additional times with rhythm]

Pre-Chorus:
G:----------------------------------|
D:----------------------------------|
A:-0-----2/14-----------------------|
E:----------------------------------|(x1)

Chorus:
G:----------------------------------|
D:----------------------------------|
A:-------5>----7>-----3>------------|
E:-3>-------------------------------|(x2)

Bridge:
G:-----------------------------------|
D:-----------------------------------|
A:-7----5----3----7----5----3-2-3-2--|(<- second time around end on "3".)
E:-----------------------------------|(X2)

Outro:
G:----------------------------------|
D:----------------------------------|
A:----------------------------------|
E:-5>--7----------------------------|(x1)

Song Structure:
Intro/Pre-Verse
Verse
Pre-Chorus
Chorus
Intro/Pre-Verse
Verse
Pre-Chorus
Chorus
Bridge
Chorus
Outro

Any questions/comments email me at bajista86@yahoo.com or www.myspace.com/joeblackness
Suggest correction
Give kudos to tab author, rate the tab!
1 2 3 4 5
comments
print report bad tab
1 comment total.
0 reply
FamousStars_ 31 Sep 04, 2007 01:33 PM

i could swear the intro is something like
G---------------0---------------|
D-------------------------------|
A----------0h2h4-----2222222----|
E---555355-------333---------5~-|

guest
You may want to rate the tab now too:
select rating
Wanna post a correction for this tab? Suggest correction