Oops, an error
Loading. Please wait.

Stop It Bass Tab

version 2
version 2

Whole song

829 views 1 this week
no commentswrite comment
1 2 3 4 5
please rate
add to favorites
launch autoscroll
font size
0
reset
guitar tuner
Autoscroll
slow
fast
+/-
esc
set tempo
stop
Help us to improve Ultimate-Guitar.com Take our survey!
×
Author
-------------------------------------------------------------------------------
			     Stop It! - The Almost
-------------------------------------------------------------------------------

 Tabbed By :dvanwyk 
 Tuning:Drop D

 Intro
G|-------------------------------------|
D|--------------3/55-------------------|
A|0-0-00-00-0-0-----------22-22--------|
D|-------------------5-5~--------------|

 Verse x2
G|--------------------|
D|--------------------|
A|0~--------2-22~-----|
D|--------------------|

 x2
G|---------------------------------------|
D|-----------5---------------------------|
A|00000000-3--------------22222222-------|
D|-------------5-55-55-5-----------------|

 Pre-Chorus 
G|-----------------|
D|-----------------|
A|0~------2~-------|
D|-----------------|

 Chorus
G|--------------------------------------------------|
D|--------------------------------------------------|
A|---------------------------3333333333-5555/7777---|
D|55555555-00000000-22222222------------------------|

G|----------------------------------------|
D|----------------------------------------|
A|---------------------------3333333333---|
D|55555555-00000000-22222222--------------|

 Post-Chorus x1
G|-------------------------------------|
D|--------------3/55-------------------|
A|0-0-00-00-0-0-----------22-22--------|
D|-------------------5-5~--------------|

 Verse
 pre-Chorus
 Chorus

 Bridge x2
G|----------------------------|
D|----------------------------|
A|-------------333333333------|
D|2-22~--0-00~----------------|

G|----------------------------------|
D|----------------------------------|
A|-------------3-33-22-3-33-22------|
D|2-22~--0-00~----------------------|

 Chorus x2

 Outro
G|-------------------|
D|-------------------|
A|0-0-00--2~---------|
D|-------------------|
Suggest correction
Give kudos to tab author, rate the tab!
1 2 3 4 5
comments
print report bad tab
guest
You may want to rate the tab now too:
select rating
Please do not post tabs as comments. Select "correction" instead!