Oops, an error
Loading. Please wait.

Summer Summer Tab

1,230 views 3 this week
no commentswrite comment
1 2 3 4 5
1 last vote to show rating
add to favorites
launch autoscroll
font size
0
reset
how to read this tab
guitar tuner
Autoscroll
slow
fast
+/-
esc
set tempo
stop
Help us to improve Ultimate-Guitar.com Take our survey!
×
Author
The Almost
Summer Summer
Monster Monster

Intro//Chorus/Outro: guitar 1
E----------------------------------------------------|
B-3333-8-7---10-8-7-8-7------8-7---10-8-7-8----------|
G-4420-----9------------9-7~-----9----------9--7-----|
D-------------------------------------------------9~-|
A----------------------------------------------------|
E----------------------------------------------------|

E--------------------------------------------------|
B--8-7---10-8-7-8-7-----8-7---10-8-7-8-------------|
G------9------------9-7~----9----------9--7-----7~-|
D--------------------------------------------9-----|
A--------------------------------------------------|
E--------------------------------------------------|

Verse:
E-0~---0~---0~------0~---0~---0~---0~-|
B-0~---1~---1~------0~---1~---1~---1~-|
G-0~---0~---2~------0~---0~---2~---0~-|
D-2~---2~---2~------2~---2~---2~---2~-|
A-2~---3~---0~------2~---3~---0~---3~-|
E-0~----------------0~----------------|

Chorus/Intro: guitar 2
E------------------------------------------------------------------|
B------------------------------------------------------------------|
G---------------------------------5-5-5-55-55-5-557-7-7-77-77-7-77-|
D-2-2-2-22-22-2---5-5-5-55-55-5-555-5-5-55-55-5-557-7-7-77-77-7-77-|
A-2-2-2-22-22-2---5-5-5-55-55-5-553-3-3-33-33-3-335-5-5-55-55-5-55-|
E-0-0-0-00-00-0-023-3-3-33-33-3-33---------------------------------|

Break:
E------------------------------------------------------------------|
B------------------------------------------------------------------|
G---------------------------------2-2-2-2-14/2-2-2-5-5-5-5-5-5-5-5-|
D-14/2-22-14/2-22-5-5-5-5-5-5-5-5-2-2-2-2-14/2-2-2-5-5-5-5-5-5-5-5-|
A-14/2-22-14/2-22-5-5-5-5-5-5-5-5-0-0-0-0-12/0-0-0-3-3-3-3-3-3-3-3-|
E-12/0-00-12/0-00-3-3-3-3-3-3-3-3----------------------------------|

E---------------------------------------------------------------------|
B---------------------------------------------------------------------|
G---------------------------------2-2-2-2-14/2-2-2-5-5-5-5-8-8-8-88---|
D-14/2-22-14/2-22-5-5-5-5-5-5-5-5-2-2-2-2-14/2-2-2-5-5-5-5-8-8-8-882~-|
A-14/2-22-14/2-22-5-5-5-5-5-5-5-5-0-0-0-0-12/0-0-0-3-3-3-3-6-6-6-662~-|
E-12/0-00-12/0-00-3-3-3-3-3-3-3-3----------------------------------0~-|

E----------------------------------------|
B-----3----3-------3-------3-------3-----|
G-------0~---0---0---0---0---0-------0---|
D--------------------------------0-------|
A--------------3-------3-----------------|
E-023--------------------------2-------2-|

Outro:
E---------------------------------------------------------------------|
B---------------------------------------------------------------------|
G---------------------------------2-2-2-2-14/2-2-2-7-7-7-7-7-7-7-7----|
D-14/2-22-14/2-22-5-5-5-5-5-5-5-5-2-2-2-2-14/2-2-2-7-7-7-7-7-7-7-7-2~-|
A-14/2-22-14/2-22-5-5-5-5-5-5-5-5-0-0-0-0-12/0-0-0-5-5-5-5-5-5-5-5-2~-|
E-12/0-00-12/0-00-3-3-3-3-3-3-3-3----------------------------------0~-|

Questions?
Email at cory.roesch@yahoo.com
Suggest correction
Give kudos to tab author, rate the tab!
1 2 3 4 5
comments
print report bad tab
guest
You may want to rate the tab now too:
select rating
Wanna post a correction for this tab? Suggest correction