Oops, an error
Loading. Please wait.

Young Again tab

version 2
version 2

Whole song

59 views 1 this week
no commentswrite comment
1 2 3 4 5
3 more votes to show rating
add to favorites
×
Save as Personal and add changes to this tab that will be seen only by you. Learn more ›
×
You can save this tab as Personal to edit and correct it or add notes. All changes will be seen only by you. Learn more »
launch autoscroll
font size
0
reset
how to read this tab
guitar tuner
edit
Autoscroll
slow
fast
+/-
esc
set tempo
stop
-----------------------------------------------------------------------------
                    YOUNG AGAIN - The Almost
-----------------------------------------------------------------------------
E-mail: a7xlucas@live.com

Tuning: Drop D (DADGBe)

Off their album Monster Monster (2009). There are bunch of guitar parts in here that are hard to hear
but I think I tabbed them pretty well. Enjoy!

My guitar cover will be on YouTube shortly!

/ or \ - slide to and from a note
* - palm mute
. - release (stop) note from ringing out after playing it
p - pull-off
~ - hold note

Intro ("hold...on..."):

Guitar 1
e|-------------------2x-|-------------------2x-|-----------------------------|
B|----------------------|----------------------|-----------------------------|
G|----------------------|----------------------|-----------------------------|
D|----------------------|-7-----333/101010\555-|--------(silence)------------|
A|----------------------|-7--x8-333/101010\555-|-----------------------------|
D|-7--x8-333/101010\555-|-7-----333/101010\555-|-----------------------------|

Guitar 2                  V I hear a bunch of distorted mutes here
e|----------------------|-------------------2x-|-----------------------------|
B|----------------------|----------------------|--.--.--.------.--.----------|
G|----------------------|----------------------|-14-14-14-141414-14-14141414-|
D|------(silence)-------|-x---xx---xx---xx-----|-----------------------------|
A|----------------------|-xxxxxxxxxxxxxxxxxxxx-|-12-12-12-121212-12-12121212-|
D|----------------------|-xxxxxxxxxxxxxxxxxxxx-|-----------------------------|

Verse:

Guitar 1
e|----------------------4x-|
B|-------------------------|
G|-------------------------|
D|-------------------------|
A|-------------------------|
D|-7--x8-5--x8-3--x13-/555-|
 
Guitar 2                                                Use vibrato V 
e|--------------------------------------------|---------1.-|-------2.-|--------3.-|-------4.-||
B|--.--.--.------.--.--------.--.--.--.--.--.-|------------|----------|-----------|----------||
G|-14-14-14-141414-14-14141414-14-14-14-14-14-|-14\121212/-|-14\1212~-|-14\1212~/-|-14141414-||
D|--------------------------------------------|------------|----------|-----------|----------||
A|-12-12-12-121212-12-12121212-12-12-12-12-12-|-12\101010/-|-12\1010~-|-12\1010~/-|-12121212-||
D|--------------------------------------------|------------|----------|-----------|----------||

Guitar 3 (hard to hear, comes in after Gt. 1 is played 2x and Gt. 2 is done the 2nd ending)
e|---------------------------------------------------------------------------|
B|---------------------------------------------------------------------------|
G|---------------------------------------------------------------------------|
D|------0~---0-2~-0~--------0~----0-2~-----------0~---0-2~-0~---0-2~---------|
A|-0-2~----------------0-2~------------0~---0-2~------------------------3~---|
D|---------------------------------------------------------------------------|

Prechorus:

Guitar 1                                 Guitar 2
e|------------------------------------||---------------------------------------------|
B|------------------------------------||-------------------------------------------.-|
G|------------------------------------||-141414\101010\5-----141414\121212\999\77777-|
D|------------------------------------||------------------x8-------------------------|
A|----------------------888\777/55555-||-121212\8-8-8-\3-----121212\101010\777\55555-|
D|-777\333/101010\5--x8---------------||---------------------------------------------|

Chorus:

Guitar 1
e|-------------------------------------------------|-----1.-|--------------2.-||
B|-------------------------------------------------|--------|-----------------||
G|-------------------------------------------------|--------|------.------.-.-||
D|-7-----5------4------4~-4-5-6-7-----5------4-----|-222222-|-222222-222222-2-||
A|-7--x8-5--x8--5--x12-5~-5-5-6-7--x8-5--x8--5--x8-|-222222-|-222222-222222-2-||
D|-7-----5------4------4~-4-5-6-7-----5------4-----|-222222-|-222222-222222-2-||
                                                     ******    
Guitar 2                                                   Bend gradually V
e|---------------------------------------|-------|------------------------------------------||
B|-------------------------------1~-/5~--|-3~----|------------------.-----5-5-5-5-5-5-5-5---||
G|---2~-4-5~-2-4~------------/2~---------|-------|-7~---7~-7~-7~-7777--7777b7b7b7b7b7b7b7b9-||
D|---------------------------------------|-------|------------------------------------------||
A|---------------------------------------|-------|------------------------------------------||
D|---------------------------------------|----1.-|---------------------------------------2.-||

Preverse:

Guitar 1              Guitar 2
e|-----------------||-----------------------------|
B|-----------------||--.--.--.------.--.----------|
G|-----------------||-14-14-14-141414-14-14141414-|
D|-7~-5~-------5-7-||-----------------------------|
A|-------2~-3~-----||-12-12-12-121212-12-12121212-|
D|-----------------||-----------------------------|

Verse 2:

Guitar 1
e|--------------------------------4x-|
B|-----------------------------------|
G|-.-.-.-.-.-.-.-.-.-.-.-.-.-.-.-----|
D|-7-7-7-7-5-5-5-5-3-3-3-3-3-3-3/555-|
A|-7-7-7-7-5-5-5-5-3-3-3-3-3-3-3/555-|
D|-7-7-7-7-5-5-5-5-3-3-3-3-3-3-3/555-|

Guitar 2
e|--------------------------------------------|---------1.-|-------2.-|--------3.-|-------4.-||
B|--.--.--.------.--.--------.--.--.--.--.--.-|------------|----------|-----------|----------||
G|-14-14-14-141414-14-14141414-14-14-14-14-14-|-14\121212/-|-14\1212~-|-14\1212~/-|-14141414-||
D|--------------------------------------------|------------|----------|-----------|----------||
A|-12-12-12-121212-12-12121212-12-12-12-12-12-|-12\101010/-|-12\1010~-|-12\1010~/-|-12121212-||
D|--------------------------------------------|------------|----------|-----------|----------||

Guitar 3 (hard to hear, comes in after Gt. 1 is played 2x and Gt. 2 is done the 2nd ending)
e|-----------------3x-|----------|
B|--------------------|----------|
G|-5pb7~-5~---2-4~-5~-|----------|
D|--------------------|----------|
A|--------------------|-5~-7~-3~-|
D|--------------------|----------|

Prechorus (guitar 1 only):
e|-----------------------------|
B|--.--.--.------.--.----------|
G|-14-14-14-141414-14-14141414-|
D|-----------------------------|
A|-12-12-12-121212-12-12121212-|
D|-----------------------------|

Repeat:
Chorus

Bridge (starting at the 2nd ending of the chorus):

Guitar 1
e|-------------------------------------------------------------2.-||
B|----------------------------------------------------------------||
G|-------.-------.-------.----------------------------------------||
D|-2222222-2222222-2222222--44444444------------------------------||
A|-2222222-2222222-2222222--55555555-7~-3~-10~-5~----7~-3~-10~-5~-||
D|-2222222-2222222-2222222--44444444-7~-3~-10~-5~----7~-3~-10~-5~-||
        
Guitar 2   V Bend these gradually  V        V                                
e|-----------.---------.-----------.--------------------------------------------------------------------||
B|-5-55555-----5-55555---5-55555-----5-55555~~~-10~---10----12~---12--------13~---13~---15----15--------||
G|-7b77777b7.5-7b77777b8-7b77777b8.5-7b77777b9~-12b14-12b14-14b16-14b16rbrb-15b17-15b17-17b19-17b19rbrb-||
D|------------------------------------------------------------------------------------------------------||
A|------------------------------------------------------------------------------------------------------||
D|---------------------------------------------------------------------------------------------------2.-||

Bridge Pt. 2:

Guitar 1
e|----------------------|-------------------||
B|----------------------|-------------------||
G|----------------------|-------------------||
D|----------------------|-.-----(pause)-----||
A|-777/333/101010\5-----|-7-----------------||
D|-777/333/101010\5--x8-|-7-----------------||

Guitar 2
e|-------------------------------------------------------------------||
B|-10~----10~---10~---12~----12~---12~---13~---13~---15----15------.-||
G|-12b14~-12b14-12b14-14b16~-14b16-14b16-15b17-15b17-17b19-17b19rbrb-||
D|-------------------------------------------------------------------||
A|-------------------------------------------------------------------||
D|-------------------------------------------------------------------||

Final Chorus/Outro:

Guitar 1
e|--------------------------------------------------------------|
B|--------------------------------------------------------------|
G|------------------------------------------------.-------------|
D|-5-----4------4~-4-5-6-7-----5------4-----2-----2-------------|
A|-5--x8-5--x12-5~-5-5-6-7--x8-5--x8--5--x8-2--x6-2---(pause)---|
D|-5-----4------4~-4-5-6-7-----5------4-----2-----2-------------|

e|------------------------------------------------------------------------------------||
B|------------------------------------------------------------------------------------||
G|------------------------------------------------------.--------.--------------------||
D|-7-----5-----4------4~-4-5-6-7-----5------4-----2-----2--2-----2--2-----------------||
A|-7--x8-5--x8-5--x12-5~-5-5-6-7--x8-5--x8--5--x8-2--x7-2--2--x7-2--2--x8-7~------7~\-||
D|-7-----5-----4------4~-4-5-6-7-----5------4-----2-----2--2-----2--2-----7~------7~\-||

Guitar 2 - the first note of each bar is played after 2 strums of the chord beneath it
e|-----------------------------------------------------------|
B|-------3~-------------------1~-----3~---1~-----------------|
G|---0~------2~-----------0h2-----------------2~----------xx-|
D|--------------------------------------------------------xx-|
A|------------------------------------------------(7)(7)--xx-|
D|-----------------------------------------------------------|
                                                   ^ ^ Artificial harmonics
e|---------3~----0~-----------------------------------------------.---------.-----------.-------------||
B|---1~-------------------------1~-----3~-3~---5~-------5-55555-----5-55555---5-55555-----------------||
G|--------------------------0h2---------------------7~--7b77777b7.5-7b77777b8-7b77777b8.5-5~------5~\-||
D|----------------------------------------------------------------------------------------------------||
A|----------------------------------------------------------------------------------------------------||
D|----------------------------------------------------------------------------------------------------||

            
            
Suggest correction
Creating personal tab
Creating personal tab
You can edit any tab online and save it as your Personal.

You can edit, replace or remove any tab part or add personal notes – all changes will be seen only by you.

Personal tabs can be accessed anytime from any device, even offline.
Learn more »
Give kudos to tab author, rate the tab!
1 2 3 4 5
comments
print report bad tab
guest
You may want to rate the tab now too:
select rating
Wanna post a correction for this tab? Suggest correction