Oops, an error
Loading. Please wait.

Your Love Is Extravagant Tab

22,327 views 6 this week
1 commentread comment
1 2 3 4 5
excellent!
x 9
add to favorites
launch autoscroll
font size
0
reset
how to read this tab
guitar tuner
Autoscroll
slow
fast
+/-
esc
set tempo
stop
Help us to improve Ultimate-Guitar.com Take our survey!
×
Author
I just picked up the new EP, and absolutely LOVE this song, I figured I should tab out the chords
Standard tuning
I'm not the best at getting the strumming expressed in tabs, but you should be able to catch on

So just listen for the strumming...

Intro/Verse:
E|--3-3---3-3-----3-3--|
B|--3-3---3-3-----3-3--|
G|--2-2---0-0-----0-2--| [REPEAT]
D|--0-0---0-0-----2-2--|
A|--0-0---2-2--0h22----|
E|--2-2---3-3-----0----|

Chorus:
E|--3-3---3-3---3-3--3--|
B|--3-3---3-3---3-3--3--|
G|--2-2---0-0---0-0--2--| [REPEAT]
D|--2-2---2-2---0-0--2--|
A|--------2-2---2-2-----|
E|--------0-0---3-3-----|

Let me know if you think it's different, I'm just throwing this out there, it sounds right. 
Suggest correction
comments
print report bad tab
1 comment total.
0 reply
Logo0801 10 wrote on June 30 2010, 11:49 pm

Thank You! BTW this is exact so don't let anyone other that Aaron tell you otherwise!

guest
You may want to rate the tab now too:
select rating
Wanna post a correction for this tab? Suggest correction