Oops, an error
Loading. Please wait.

The Strangest Thing tab

version 3
version 3

Whole song

927 views 12 this week
4 commentsread comments
1 2 3 4 5
x 3
add to favorites
×
Save as Personal and add changes to this tab that will be seen only by you. Learn more ›
×
You can save this tab as Personal to edit and correct it or add notes. All changes will be seen only by you. Learn more »
launch autoscroll
font size
0
reset
how to read this tab
guitar tuner
edit
Autoscroll
slow
fast
+/-
esc
set tempo
stop
-------------------------------------------------------------------------------
                      The Strangest Thing - The Amazing
-------------------------------------------------------------------------------
Originally Tabbed by: AnidaPayrise -- Edited by Jennifer Robertson

* are placed where the beat lands

Pattern:
Intro
Verse
Chorus
Verse
Chorus
Verse
Chorus
Ending


Tuning: standard tuning, capo 2nd fret

INTRO
e|-------------------------------------------------------------------------------|
B|----------------1-0h-1p-0---------0-------0-------0-------0-------0-------0----|
G|--------------------------2----------------------------------------------------|
D|---------2---2--------------2---2---2---2---2---2---2---2---2---2---2---2---2--|
A|-----0h3---0------------------0-------0-------0-------0-------0-------0--------|
E|-0h3---------------------------------------------------------------------------|
                                *       *       *       *       *       *

VERSES
e|-------------------------------------------------------------------------|
B|-----1--------1--------1--------1--------1--------1--------1--------1----|
G|---2---2----2---2----0---0----0---0----0---0----0---0----0---0----0---0--|
D|----------------------------2--------------------------------------------|  X3
A|-0-----------------------------------3--------------------------3--------|
E|----------0--------3--------------------------3--------1-----------------|
   *        *        *        *        *        *        *        *

e|--------------------------------------|
B|-----0--------0-------0---------------|
G|---0---0----0---0---0---0-------------|
D|-------------------------------0h2-0--|
A|---------------------------0h3--------|
E|-3-------3--------3-------------------|
   *       *        *        *


CHORUS
e|---------------------------------------------------------------------------------------------|
B|-----1-----------1-----------1----------1-----------1------1---------1---------1-------------|
G|----------0h2---------0h2---------0h2----------0h2-------------0--------------------------0--|
D|---3---3-------3---3-------3---3------3---3------------------------0---0---2h3---2----0h2----|
A|---------------------------------------------0-----------2---2----------------------3--------|
E|-1--------1-----------1-----------1--------------------0---------3---------------------------|
   *        *           *           *          *         *         *         *        *

e|---------------------------------------------------------------------------------------------|
B|-----1---------1-------------1------------1------1---------1---------1------------------1----|
G|---0---0-----3---3----0h2---------------2------0---0-----0---0-------------------0----0---0--|
D|---------------------------3---3----0h2--------------------------2h3---2-----0h2-------------|
A|----------------------------------0----------------------------------------3-----------------|
E|-3--------1-----------1----------------------0---------3----------------------------3--------|
   *        *           *           *          *         *         *         *        *        

  1st and 2nd Chorus Ending
e|------------------------|
B|------1------------1----|
G|----3---3----0h2--------|
D|-----------------3---3--|
A|------------------------|
E|--1--------1------------|
    *        *

ENDING: (3rd Chorus)
e|-.----------------------|        |-------|
B|-.--------1--------1----|        |-------|
G|-.-0h2---------0--------|        |-0h2---|
D|-.------3---3----3---3--|  X15   |-------|
A|-.----------------------|        |-------|
E|-.-1-----------1--------|        |-1-----|
     *           *                   *



| h   hammer-on
| p   pull-off

            
            
Suggest correction
Creating personal tab
Creating personal tab
You can edit any tab online and save it as your Personal.

You can edit, replace or remove any tab part or add personal notes – all changes will be seen only by you.

Personal tabs can be accessed anytime from any device, even offline.
Learn more »
Give kudos to tab author, rate the tab!
1 2 3 4 5
comments
print report bad tab
4 comments total. Showing first comments.
+1 reply
jppretto97 10 Jul 05, 2015 07:01 PM

Thank you for improving on the other versions! This is my first picking song on guitar :)

0 reply
rickyleep 10 Feb 04, 2016 01:11 AM

Love this song.. Trying hard to get it right.. Timing is hard though... Struggling with the very start and the hammers on at the end of the verse...

Thank you for the tab :)

guest
You may want to rate the tab now too:
select rating
Wanna post a correction for this tab? Suggest correction