Oops, an error
Loading. Please wait.

Mr Fix-It Bass Tab

version 1
version 1

Whole song

Interactive

486 views 1 this week
4 commentsread comments
1 2 3 4 5
x 3
add to favorites
launch autoscroll
font size
0
reset
guitar tuner
Autoscroll
slow
fast
+/-
esc
set tempo
stop
Help us to improve Ultimate-Guitar.com Take our survey!
×
----------------------------------------------------------------------------
	             Mr. Fix It - The Amazing Royal Crowns
----------------------------------------------------------------------------
Tabbed By : aleckillscobra
e-mail: adkband@yahoo.com

Tuning: Standard

This is at least 90% right. All my orginal work. I played this song on guitar hero  
but because there were no tabs for it, I decided to figure it out myself. E-mail me any changes  
you think need to be made.


Intro
G|-------------------------------------------------------------------------|
D|-------------------------------------------------------------------------|
A|-5-0-0--5-0-0--5-0-0-3-5-0-0---------------------------------------------|
E|-------------------------------------------------------------------------|

Verse
G|-------------------------------------------------------------------------|
D|-------------------------------------------------------------------------|
A|-0--0-0-5-5-5-5-3-3------------------------------------------------------|
E|--------------------3-3-5-5----------------------------------------------|

Chorus
G|-------------------------------------------------------------------------|
D|-------------------------------------------------------------------------|
A|-0--0-0-3--5-----5--------------5-5-5-5-3--------------------------------|
E|---------------5---5----5-5-5-5-----------3-5----------------------------|

Bridge 1
G|-------------------------------------------------------------------------|
D|-------------------------------------------------------------------------|
A|-------2-0-0-3--3-3-0-----4----------------------------------------------|
E|-2-5-2----------------2-2------------------------------------------------|

Bridge 2
G|-------------------------------------------------------------------------|
D|-------------------------------------------------------------------------|
A|-------0------------------2----------------------------------------------|
E|-0-3-0---3-3-6--6-6-3-0-0------------------------------------------------|

Outro
G|-------------------------------------------------------------------------|
D|-------------------------------------------------------------------------|
A|-0--0-0-3--5-----5-------------------------------------------------------|
E|---------------5---5-----------------------------------------------------|

Song Break Down
Intro     x2
Verse     x4
Chorus    x2
Intro     x2
Verse     x4
Chorus    x2
Intro     x2
Bridge 1  x2
Bridge 2  x2
Bridge 1  x4
Verse     x4
Chorus    x2
Verse     x4
Outro     x1


| /  slide up
| \  slide down
| h  hammer-on
| p  pull-off
| ~  vibrato
| +  harmonic
| x  Mute note
============================================================================
Suggest correction
Give kudos to tab author, rate the tab!
1 2 3 4 5
comments
print report bad tab
4 comments total. Showing first comments.
0 reply
hutchie1 10 Jul 07, 2007 10:15 AM

short tab

0 reply
epigothunder12 10 Jul 08, 2007 11:27 AM

this sucks, short tab

0 reply
Noble Cause 82 Oct 13, 2007 12:33 PM

inaccurate... i wrote tab that is more correct.... hint hint.... the bass tab is practically the guitar tab on the A string

guest
You may want to rate the tab now too:
select rating
Wanna post a correction for this tab? Suggest correction