Oops, an error
Loading. Please wait.

Mr Fix-It Tab

version 1
version 1

Whole song

Interactive

5,892 views 3 this week
3 commentsread comments
1 2 3 4 5
accurate
x 8
add to favorites
launch autoscroll
font size
0
reset
how to read this tab
guitar tuner
Autoscroll
slow
fast
+/-
esc
set tempo
stop
Help us to improve Ultimate-Guitar.com Take our survey!
×
Author
Difficulty
novice
Mr.Fix-it - By the amazing royal crowns
(as heard on Guitar hero 2)


Intro    Solo part               Rhythm
:----------------------:     :-----------------------:
:----------------------:     :-----------------------:
:----------------------:     :-7----7----7----5-7----:
:--------------------2-: x 2 :-7-77-7-77-7-77-5-5-77-:x 2
:--0-2-0---3-3-2-0-----:     :-5-77-5-77-5-77-3-5-77-:
:-2-2---2---------2-0-0:     :---55---55---55-----55-:

Verse
:--------------------:
:--------------------:
:------77----55-10---:
:-7-77-77-77-55-10-7-: x 4
:-7-77-55-77-33--8-7-:
:-5-55----55-------5-:

Chorus
1st
:--------------------------------------------:
:--------------------------------------------:
:------77------7--------------77----55--10---:
:-7-77-77----7-7-7-------7-77-55-77-55--10-7-: x 2
:-7-77-55----7-5-7----0--7-77-55-77-33---8-7-:
:-5-55---xxx-5---5-0-3---5-55----55--------5-:
2nd
:-----------------------:
:-----------------------:
:-7----7----7----5-7----:x 2
:-7-77-7-77-7-77-5-5-77-:
:-5-77-5-77-5-77-3-5-77-:
:---55---55---55-----55-:

back to verse
then chorus
then back to the intro (1 string part) then to the solo (Dont have as of now)
then back to verse
then 2nd part of chorus
end on the 1st half of the 1st part of the chorus played once
but have another guitar playing
:-------------------:
:-11~~11~~-9--------:
:-----------10------:
:--------------13-11:
:-------------------:
:-------------------:
Suggest correction
What's this?
You can suggest a correction to this tab. Community and Mods will review your correction and vote to approve or reject it.
comments
print report bad tab
3 comments total.
0 reply
smitty_bang 32 wrote on May 23 2007, 06:34 am

not all there but its great 10 000 000 stars i love guitar hero :)

0 reply
JadedDeath 32 wrote on September 19 2007, 06:07 pm

This tab is mostly accurate, you just need to add an upward slide to the beginning of every riff. Just go from a 133 power chord and slide up to 577

0 reply
_Zazazabuza 42 wrote on May 27 2008, 03:44 am

This Tab is quite good, Thanx for posting it! :] But you were a bit lazy in tabbing it tho, lol.

guest
You may want to rate the tab now too:
select rating
Please do not post tabs as comments. Select "correction" instead!