Oops, an error
Loading. Please wait.

In My Mind Tab

256 views 48 this week
no commentswrite comment
1 2 3 4 5
2 more votes to show rating
add to favorites
launch autoscroll
font size
0
reset
how to read this tab
guitar tuner
Autoscroll
slow
fast
+/-
esc
set tempo
stop
Help us to improve Ultimate-Guitar.com Take our survey!
×
Author
Difficulty
novice
About this tab version
Pretty simple and easy to read. Was this info helpful? Yes No
[Intro]

e|---------------------------------------------------------------------------|
B|---------------------------------------------------------------------------|
G|---------------------------------------------------------------------------|
D|----1-3-----------------------3-5----1-1h3p1-------------------------------|
A|----------5--3-5-3-5/6------3~-----1--3------3-1---------------------------|
E|-4~-----1------------------------------------------------------------------|

e|---------------------------------------------------------------------------|
B|---------------------------------------------------------------------------|
G|---------------------------------------------------------------------------|
D|----1-3----------------xx-5-5/3-3~/5-5--5-3-3------------------------------|
A|----------5--3-5-3-5/6-xx-3-3/1-1~/3-3--3-1-1------------------------------|
E|-4~-----1------------------------------------------------------------------|



Played twice through then into the verse
Suggest correction
Give kudos to tab author, rate the tab!
1 2 3 4 5
comments
print report bad tab
guest
You may want to rate the tab now too:
select rating
Wanna post a correction for this tab? Suggest correction