Oops, an error
Loading. Please wait.

Ultraviolet tab

355 views 21 this week
no commentswrite comment
1 2 3 4 5
1 last vote to show rating
add to favorites
×
Save as Personal and add changes to this tab that will be seen only by you. Learn more ›
×
You can save this tab as Personal to edit and correct it or add notes. All changes will be seen only by you. Learn more »
launch autoscroll
font size
0
reset
how to read this tab
guitar tuner
edit
Autoscroll
slow
fast
+/-
esc
set tempo
stop
Author
Difficulty
                               /// Ultraviolet By The Amazons ///

Tabbed by Izach Prince Paul
Enjoy.


[Intro]

[Lead Guitar]
e|----------------------------------|------------------------------7----------|
B|------5-5-7-7-9----5-5-7-7-9-9-9--|------5-5-7-7-9----5-5-7-7-9-9-----------|
G|--6-6----------6-6----------------|--6-6----------6-6-----------------------|
D|----------------------------------|-----------------------------------------|
A|----------------------------------|-----------------------------------------|
E|----------------------------------|-----------------------------------------|

e|------------------------------------------------------------------|
B|------5-5-7-7-9----5-5-7-7-9-9-9-7-7-7-7-7-7-7-7-7-7-7-7-7-7-7-7--|
G|--6-6----------6-6------------------------------------------------|
D|------------------------------------------------------------------|
A|------------------------------------------------------------------|
E|------------------------------------------------------------------|

[Rhythm Guitar]
    E
e|-----|
B|-----|
G|--1--|
D|--2--| Just keep strumming E Chord.
A|--2--|
E|-----|


[Verse 1]

[Lead Guitar]
e|--------------------------------------------------|
B|--------12-------12----12------12-------12----12--|
G|--13-13----13-13----13---13-13----13-13----13-----|  
D|--------------------------------------------------|  x3
A|--------------------------------------------------|
E|--------------------------------------------------|

e|------------------------------------------------------|
B|--------12-------12----12------12-------14-12---------|
G|--13-13----13-13----13---13-13----13-13-------13------|  
D|------------------------------------------------------|  x3
A|------------------------------------------------------|
E|------------------------------------------------------|

e|------------------------------------------------------|
B|--------12-------14----12-------12-------14----12-----|
G|--13-13----13-13----13----13-13----13-13----13--------|  
D|------------------------------------------------------|  x2
A|------------------------------------------------------|
E|------------------------------------------------------|

[Rhythm Guitar]
   PM
e|-----|     
B|-----|
G|-----|
D|--7--| x16 
A|--7--|
E|--5--|

   PM
e|-----|
B|-----|
G|--9--|
D|--9--| x16
A|--7--|
E|-----|

   PM
e|-----|
B|-----|
G|-----|
D|--7--| x16 
A|--7--|
E|--5--|

   PM
e|-----|
B|-----|
G|--9--|
D|--9--| x16
A|--7--|
E|-----|

e|-----|
B|-----|
G|--7--|
D|--7--| x16 
A|--5--|
E|-----|

   PM
e|-----|
B|-----|
G|-----|
D|--7--| x8 
A|--7--|
E|--5--|

   PM
e|-----|
B|-----|
G|--4--|
D|--4--| x8
A|--2--|
E|-----|

[Chorus 1]

[Lead Guitar]
e|----------------------------------|------------------------------7----------|
B|------5-5-7-7-9----5-5-7-7-9-9-9--|------5-5-7-7-9----5-5-7-7-9-9-----------|
G|--6-6----------6-6----------------|--6-6----------6-6-----------------------|
D|----------------------------------|-----------------------------------------|
A|----------------------------------|-----------------------------------------|
E|----------------------------------|-----------------------------------------|

e|------------------------------------------------------------------|
B|------5-5-7-7-9----5-5-7-7-9-9-9-7-7-7-7-7-7-7-7-7-7-7-7-7-7-7-7--|
G|--6-6----------6-6------------------------------------------------|
D|------------------------------------------------------------------|
A|------------------------------------------------------------------|
E|------------------------------------------------------------------|

e|----------------------------------|------------------------------7----------|
B|------5-5-7-7-9----5-5-7-7-9-9-9--|------5-5-7-7-9----5-5-7-7-9-9-----------|
G|--6-6----------6-6----------------|--6-6----------6-6-----------------------|
D|----------------------------------|-----------------------------------------|
A|----------------------------------|-----------------------------------------|
E|----------------------------------|-----------------------------------------|

e|------------------------------------------------------------------|
B|------5-5-7-7-9----5-5-7-7-9-9-9-7-7-7-7-7-7-7-7-7-7-7-7-7-7-7-7--|
G|--6-6----------6-6------------------------------------------------|
D|------------------------------------------------------------------|
A|------------------------------------------------------------------|
E|------------------------------------------------------------------|

[Rhythm Guitar]
    A          E         C#m        G#m7
e|-----|   e|-----|   e|-----|   e|--4--|
B|--2--|   B|-----|   B|-----|   B|--4--|
G|--2--|   G|--1--|   G|--6--|   G|--4--| This is my version of a G#m7 
D|--2--|   D|--2--|   D|--6--|   D|--4--| played particular for this song.
A|-----|   A|--2--|   A|--4--|   A|--6--|
E|-----|   E|-----|   E|-----|   E|--4--|

    A          E          B       
e|-----|   e|-----|   e|-----|   
B|--2--|   B|-----|   B|-----|   
G|--2--|   G|--1--|   G|--4--|    
D|--2--|   D|--2--|   D|--4--|   
A|-----|   A|--2--|   A|--2--|  
E|-----|   E|-----|   E|-----|   

    A          E         C#m        G#m7
e|-----|   e|-----|   e|-----|   e|--4--|
B|--2--|   B|-----|   B|-----|   B|--4--|
G|--2--|   G|--1--|   G|--6--|   G|--4--| This is my version of a G#m7 
D|--2--|   D|--2--|   D|--6--|   D|--4--| played particular for this song.
A|-----|   A|--2--|   A|--4--|   A|--6--|
E|-----|   E|-----|   E|-----|   E|--4--|

    A          E          B       
e|-----|   e|-----|   e|-----|   
B|--2--|   B|-----|   B|-----|   
G|--2--|   G|--1--|   G|--4--|    
D|--2--|   D|--2--|   D|--4--|   
A|-----|   A|--2--|   A|--2--|  
E|-----|   E|-----|   E|-----|   

[Verse 2]

[Lead Guitar]
e|--------------------------------------------------|
B|--------12-------12----12------12-------12----12--|
G|--13-13----13-13----13---13-13----13-13----13-----|  
D|--------------------------------------------------|  x3
A|--------------------------------------------------|
E|--------------------------------------------------|

e|------------------------------------------------------|
B|--------12-------12----12------12-------14-12---------|
G|--13-13----13-13----13---13-13----13-13-------13------|  
D|------------------------------------------------------|  x3
A|------------------------------------------------------|
E|------------------------------------------------------|

e|------------------------------------------------------|
B|--------12-------14----12-------12-------14----12-----|
G|--13-13----13-13----13----13-13----13-13----13--------|  
D|------------------------------------------------------|  x2
A|------------------------------------------------------|
E|------------------------------------------------------|

[Rhythm Guitar]
   PM
e|-----|     
B|-----|
G|-----|
D|--7--| x16 
A|--7--|
E|--5--|

   PM
e|-----|
B|-----|
G|--9--|
D|--9--| x16
A|--7--|
E|-----|

   PM
e|-----|
B|-----|
G|-----|
D|--7--| x16 
A|--7--|
E|--5--|

   PM
e|-----|
B|-----|
G|--9--|
D|--9--| x16
A|--7--|
E|-----|

e|-----|
B|-----|
G|--7--|
D|--7--| x16 
A|--5--|
E|-----|

   PM
e|-----|
B|-----|
G|-----|
D|--7--| x8 
A|--7--|
E|--5--|

   PM
e|-----|
B|-----|
G|--4--|
D|--4--| x8
A|--2--|
E|-----|

[Chorus 2]

[Lead Guitar]
e|----------------------------------|------------------------------7----------|
B|------5-5-7-7-9----5-5-7-7-9-9-9--|------5-5-7-7-9----5-5-7-7-9-9-----------|
G|--6-6----------6-6----------------|--6-6----------6-6-----------------------|
D|----------------------------------|-----------------------------------------|
A|----------------------------------|-----------------------------------------|
E|----------------------------------|-----------------------------------------|

e|------------------------------------------------------------------|
B|------5-5-7-7-9----5-5-7-7-9-9-9-7-7-7-7-7-7-7-7-7-7-7-7-7-7-7-7--|
G|--6-6----------6-6------------------------------------------------|
D|------------------------------------------------------------------|
A|------------------------------------------------------------------|
E|------------------------------------------------------------------|

e|----------------------------------|------------------------------7----------|
B|------5-5-7-7-9----5-5-7-7-9-9-9--|------5-5-7-7-9----5-5-7-7-9-9-----------|
G|--6-6----------6-6----------------|--6-6----------6-6-----------------------|
D|----------------------------------|-----------------------------------------|
A|----------------------------------|-----------------------------------------|
E|----------------------------------|-----------------------------------------|

e|------------------------------------------------------------------|
B|------5-5-7-7-9----5-5-7-7-9-9-9-7-7-7-7-7-7-7-7-7-7-7-7-7-7-7-7--|
G|--6-6----------6-6------------------------------------------------|
D|------------------------------------------------------------------|
A|------------------------------------------------------------------|
E|------------------------------------------------------------------|

[Rhythm Guitar]
    A          E         C#m        G#m7
e|-----|   e|-----|   e|-----|   e|--4--|
B|--2--|   B|-----|   B|-----|   B|--4--|
G|--2--|   G|--1--|   G|--6--|   G|--4--| This is my version of a G#m7 
D|--2--|   D|--2--|   D|--6--|   D|--4--| played particular for this song.
A|-----|   A|--2--|   A|--4--|   A|--6--|
E|-----|   E|-----|   E|-----|   E|--4--|

    A          E          B       
e|-----|   e|-----|   e|-----|   
B|--2--|   B|-----|   B|-----|   
G|--2--|   G|--1--|   G|--4--|    
D|--2--|   D|--2--|   D|--4--|   
A|-----|   A|--2--|   A|--2--|  
E|-----|   E|-----|   E|-----|   

    A          E         C#m        G#m7
e|-----|   e|-----|   e|-----|   e|--4--|
B|--2--|   B|-----|   B|-----|   B|--4--|
G|--2--|   G|--1--|   G|--6--|   G|--4--| This is my version of a G#m7 
D|--2--|   D|--2--|   D|--6--|   D|--4--| played particular for this song.
A|-----|   A|--2--|   A|--4--|   A|--6--|
E|-----|   E|-----|   E|-----|   E|--4--|

    A          E          B       
e|-----|   e|-----|   e|-----|   
B|--2--|   B|-----|   B|-----|   
G|--2--|   G|--1--|   G|--4--|    
D|--2--|   D|--2--|   D|--4--|   
A|-----|   A|--2--|   A|--2--|  
E|-----|   E|-----|   E|-----|   

[Interlude]

[Rhythm Guitar]
   C#m
e|-----|
B|-----|
G|--6--|
D|--6--| x32
A|--4--|
E|-----|

   C#m              B             
e|-----|        e|-----|         
B|-----|        B|-----|           
G|-----|        G|-----|          
D|--11-| x3     D|--9--| x1        
A|--11-|        A|--9--|         
E|--9--|        E|--7--|      

   C#m              E             
e|-----|        e|-----|         
B|-----|        B|-----|           
G|-----|        G|-----|          
D|--11-| x3     D|--14-| x1        
A|--11-|        A|--14-|         
E|--9--|        E|--12-|      

    A              G#m             
e|-----|        e|-----|         
B|-----|        B|-----|           
G|-----|        G|-----|          
D|--7--| x3     D|--6--| x1        
A|--7--|        A|--6--|         
E|--5--|        E|--4--|      

   F#m             Em             
e|-----|        e|-----|         
B|-----|        B|-----|           
G|-----|        G|-----|          
D|--4--| x3     D|--2--| x1        
A|--4--|        A|--2--|         
E|--2--|        E|-----|      

   C#m              B             
e|-----|        e|-----|         
B|-----|        B|-----|           
G|-----|        G|-----|          
D|--11-| x3     D|--9--| x1        
A|--11-|        A|--9--|         
E|--9--|        E|--7--|      

   C#m              E             
e|-----|        e|-----|         
B|-----|        B|-----|           
G|-----|        G|-----|          
D|--11-| x3     D|--14-| x1        
A|--11-|        A|--14-|         
E|--9--|        E|--12-|      

    A              G#m             
e|-----|        e|-----|         
B|-----|        B|-----|           
G|-----|        G|-----|          
D|--7--| x3     D|--6--| x1        
A|--7--|        A|--6--|         
E|--5--|        E|--4--|      

   F#m             Em             
e|-----|        e|-----|         
B|-----|        B|-----|           
G|-----|        G|-----|          
D|--4--| x3     D|--2--| x1        
A|--4--|        A|--2--|         
E|--2--|        E|-----|      

[Solo]

[Lead Guitar]
e|------------------|---------------7-4-7-7/9-4--------|
B|-----5-7-9-7-5----|-----5-7-9-7-5-------------7-5b7--|
G|--6------------6--|--6-------------------------------|
D|------------------|----------------------------------|
A|------------------|----------------------------------|
E|------------------|----------------------------------|

e|------------------|---------------7-7-7-7-9-9-9-9-11-11-11-11-12-12-12-12-----|
B|-----5-7-9-7-5----|-----5-7-9-7-5-----------------------------------------14--|
G|--6------------6--|--6--------------------------------------------------------|
D|------------------|-----------------------------------------------------------|
A|------------------|-----------------------------------------------------------|
E|------------------|-----------------------------------------------------------|

[Rhythm Guitar]

    A          F#m        C#m         B
e|-----|    e|-----|   e|-----|   e|-----|    
B|-----|    B|-----|   B|-----|   B|-----|     
G|-----|    G|-----|   G|-----|   G|-----|    
D|--7--|    D|--4--|   D|--11-|   D|--9--|   
A|--7--|    A|--4--|   A|--11-|   A|--9--|   
E|--5--|    E|--2--|   E|--9--|   E|--7--|

    A          F#m         B         
e|-----|    e|-----|   e|-----|      
B|-----|    B|-----|   B|-----|        
G|-----|    G|-----|   G|-----|      
D|--7--|    D|--4--|   D|--9--|      
A|--7--|    A|--4--|   A|--9--|      
E|--5--|    E|--2--|   E|--7--|   

   C#m
e|-----|
B|-----|
G|-----|
D|--11-|  
A|--11-|
E|--9--|

[Chorus 3]

[Lead Guitar]
e|----------------------------------|------------------------------7----------|
B|------5-5-7-7-9----5-5-7-7-9-9-9--|------5-5-7-7-9----5-5-7-7-9-9-----------|
G|--6-6----------6-6----------------|--6-6----------6-6-----------------------|
D|----------------------------------|-----------------------------------------|
A|----------------------------------|-----------------------------------------|
E|----------------------------------|-----------------------------------------|

e|------------------------------------------------------------------|
B|------5-5-7-7-9----5-5-7-7-9-9-9-7-7-7-7-7-7-7-7-7-7-7-7-7-7-7-7--|
G|--6-6----------6-6------------------------------------------------|
D|------------------------------------------------------------------|
A|------------------------------------------------------------------|
E|------------------------------------------------------------------|

e|----------------------------------|------------------------------7----------|
B|------5-5-7-7-9----5-5-7-7-9-9-9--|------5-5-7-7-9----5-5-7-7-9-9-----------|
G|--6-6----------6-6----------------|--6-6----------6-6-----------------------|
D|----------------------------------|-----------------------------------------|
A|----------------------------------|-----------------------------------------|
E|----------------------------------|-----------------------------------------|

e|---------------------------------7-7-7-7-9-9-9-9-11-11-11-11-12-12-12-12----|
B|------5-5-7-7-9----5-5-7-7-9-9-9--------------------------------------------|
G|--6-6----------6-6----------------------------------------------------------|
D|----------------------------------------------------------------------------|
A|----------------------------------------------------------------------------|
E|----------------------------------------------------------------------------|

e|----------------------------------|------------------------------7----------|
B|------5-5-7-7-9----5-5-7-7-9-9-9--|------5-5-7-7-9----5-5-7-7-9-9-----------|
G|--6-6----------6-6----------------|--6-6----------6-6-----------------------|
D|----------------------------------|-----------------------------------------|
A|----------------------------------|-----------------------------------------|
E|----------------------------------|-----------------------------------------|

e|---------------------------------7-7-7-7-9-9-9-9-11-11-11-11-12-12-12-12----|
B|------5-5-7-7-9----5-5-7-7-9-9-9-----------------------------------------14-|
G|--6-6----------6-6----------------------------------------------------------|
D|----------------------------------------------------------------------------|
A|----------------------------------------------------------------------------|
E|----------------------------------------------------------------------------|

[Rhythm Guitar]
    A          E         C#m        G#m7
e|-----|   e|-----|   e|-----|   e|--4--|
B|--2--|   B|-----|   B|-----|   B|--4--|
G|--2--|   G|--1--|   G|--6--|   G|--4--| This is my version of a G#m7 
D|--2--|   D|--2--|   D|--6--|   D|--4--| played particular for this song.
A|-----|   A|--2--|   A|--4--|   A|--6--|
E|-----|   E|-----|   E|-----|   E|--4--|

    A          E          B       
e|-----|   e|-----|   e|-----|   
B|--2--|   B|-----|   B|-----|   
G|--2--|   G|--1--|   G|--4--|    
D|--2--|   D|--2--|   D|--4--|   
A|-----|   A|--2--|   A|--2--|  
E|-----|   E|-----|   E|-----|   

    A          E         C#m        G#m7
e|-----|   e|-----|   e|-----|   e|--4--|
B|--2--|   B|-----|   B|-----|   B|--4--|
G|--2--|   G|--1--|   G|--6--|   G|--4--| This is my version of a G#m7 
D|--2--|   D|--2--|   D|--6--|   D|--4--| played particular for this song.
A|-----|   A|--2--|   A|--4--|   A|--6--|
E|-----|   E|-----|   E|-----|   E|--4--|

    A          E          B       
e|-----|   e|-----|   e|-----|   
B|--2--|   B|-----|   B|-----|   
G|--2--|   G|--1--|   G|--4--|    
D|--2--|   D|--2--|   D|--4--|   
A|-----|   A|--2--|   A|--2--|  
E|-----|   E|-----|   E|-----|   

[Outro]

[Rhythm Guitar] 

   C#m
e|-----|
B|-----|
G|-----|
D|--11-|   One last strum.
A|--11-|
E|--9--|



************************************

| b   Bend
| /   Slide up
| PM  Palm mute

************************************

            
            
Suggest correction
Creating personal tab
Creating personal tab
You can edit any tab online and save it as your Personal.

You can edit, replace or remove any tab part or add personal notes – all changes will be seen only by you.

Personal tabs can be accessed anytime from any device, even offline.
Learn more »
Give kudos to tab author, rate the tab!
1 2 3 4 5
comments
print report bad tab
guest
You may want to rate the tab now too:
select rating
Wanna post a correction for this tab? Suggest correction