Oops, an error
Loading. Please wait.

Choir Vandals chords

2,537 views 1 this week
1 commentread comment
1 2 3 4 5
x 3
add to favorites
×
Save as Personal and add changes to this tab that will be seen only by you. Learn more ›
×
You can save this tab as Personal to edit and correct it or add notes. All changes will be seen only by you. Learn more »
launch autoscroll
font size
0
reset
transpose
0
reset
display chords
guitar tuner
edit
Autoscroll
slow
fast
+/-
esc
set tempo
stop
Author
Difficulty
Strumming
There is no strumming pattern for this song yet. and get +5 IQ
i'm pretty sure this is correct.  any corrections would be appreciated.  enjoy.

(lead 1)
e-----5--3-------------------5--3---------------------5--3-------------------------------|
B-----------5—3--1—3--5--3---------5--3--1--3--5--3---------5--3--1--3--5--3--1--3--5—3--|
G----------------------------------------------------------------------------------------|
D----------------------------------------------------------------------------------------|
A----------------------------------------------------------------------------------------|
E----------------------------------------------------------------------------------------|

(lead 2)  on every third time around play it this way.
|--5-3-------------------------------|
|------5-3--1-3--5-3--1-3------------|
|-------------------------4-2--------|
|------------------------------------|
|------------------------------------|
|------------------------------------|


Intro.

Am   C   F   G

Am   C   F   G

Am   C   F   G   F   G

Am         C       F        G
Bend down, like a, caffiene candle.
Am         C         F      G
Locked out, with the, choir vandals.
Am       C        F        G      F   G
Reading, destroy, destroy, destroy.

Am   C   F   G

Am   C   F   G

Am   C   F   G   F   G

Am         C      F          G
Two speed, cycle, streamer’d handle.
Am       C          F       G
Evening, will find, moment, scandals.
Am           C      F       G      F  G
I just want, to be, someone, you know.

Am   C   F   G

Am   C   F   G

Am   C   F   G   F   G

Am   C   F   G

Am   C   F   G

Am   C   F   G   F   G

            
            
Suggest correction
Creating personal tab
Creating personal tab
You can edit any tab online and save it as your Personal.

You can edit, replace or remove any tab part or add personal notes – all changes will be seen only by you.

Personal tabs can be accessed anytime from any device, even offline.
Learn more »
Give kudos to tab author, rate the tab!
1 2 3 4 5
comments
print report bad tab
1 comment total.
0 reply
ill_informed 73 Feb 06, 2011 11:12 AM

pretty good. but i think the lead should be down on the D and A strings instead of e and B.. little example (u get the jist)

D-7--5-----------------------
A-------7--5---3---5---7--5--

guest
You may want to rate the tab now too:
select rating
Wanna post a correction for this tab? Suggest correction