Oops, an error
Loading. Please wait.

Fuck This Im Leaving tab

647 views 1 this week
no commentswrite comment
1 2 3 4 5
2 more votes to show rating
add to favorites
×
Save as Personal and add changes to this tab that will be seen only by you. Learn more ›
×
You can save this tab as Personal to edit and correct it or add notes. All changes will be seen only by you. Learn more »
launch autoscroll
font size
0
reset
how to read this tab
guitar tuner
edit
Autoscroll
slow
fast
+/-
esc
set tempo
stop
Author
Fuck This... I'm Leaving
The American Analog Set

Tuning: Standard

Main Riff:
e|------------------------------------------------------------------------------|
B|------------------------------------------------------------------------------|
G|-----0------------------------------------------------------------------------|
D|---4---4-0-0----2-0-----0---2--0-----0---2--0---------------------------------|
A|---5------------3-----------3------------3-----3/5----------------------------|
E|---5------------3---3/5-----3----3/5-----3-----3/5----------------------------|

Main Riff Variation #1:
e|-----------------------------------------------------------------------------|
B|-----------------------------------------------------------------------------|
G|-----0---------2-0---------2-0-----------------------------------------------|
D|---4--4-0-0---------4-0--------4-0---2--0------------------------------------|
A|---5-----------3-----------3---------3-----3/5-------------------------------|
E|---5-----------3-----------3---------3-----3/5-------------------------------|

Main Riff Variation #2:
e|-----------------------------------------------------------------------------|
B|---------------1--0------0---1--0--------------------------------------------|
G|-----0---------0--0--0-2-2---0--0--2-2-0-------------------------------------|
D|---4--4-0-0----2--2----------2--2----------2--0------------------------------|
A|---5-----------3-------------3-------------3----3/5--------------------------|
E|---5-----------3-------------3-------------3----3/5--------------------------|

Chorus:
e|------------------------------------------------------------------------------|
B|------------------------------------------------------------------------------|
G|-------------------------------7----------------------------------------------|
D|----4-5-7-9-10-12-12-12-12-----4----------------------------------------------|
A|-------------------------------5----------------------------------------------|
E|-------------------------------5----------------------------------------------|
                                 ^ strum this (obviously)

Chorus Variation:
e|-----------------------------------------------------------------------------|
B|-----------------------------------------------------------------------------|
G|-----------------------------7-----------------------------------------------|
D|----4-5-7-9-10-12-5--5-5-5---4-----------------------------------------------|
A|-----------------------------5-----------------------------------------------|
E|-----------------------------5-----------------------------------------------|

During the chorus, you might want to slide between notes sometimes, because that's what 
sounds like. Anyway, listen to the song, and figure out where the different variations fit
in.
AmAnSet////

            
            
Suggest correction
Creating personal tab
Creating personal tab
You can edit any tab online and save it as your Personal.

You can edit, replace or remove any tab part or add personal notes – all changes will be seen only by you.

Personal tabs can be accessed anytime from any device, even offline.
Learn more »
Give kudos to tab author, rate the tab!
1 2 3 4 5
comments
print report bad tab
guest
You may want to rate the tab now too:
select rating
Wanna post a correction for this tab? Suggest correction