Oops, an error
Loading. Please wait.

Bondi St Blues Tab

version 1
version 1

Intro

Interactive

3,036 views 12 this week
no commentswrite comment
1 2 3 4 5
x 4
add to favorites
launch autoscroll
font size
0
reset
how to read this tab
guitar tuner
Autoscroll
slow
fast
+/-
esc
set tempo
stop
Help us to improve Ultimate-Guitar.com Take our survey!
×
Author
-------------------------------------------------------------------------------
                   BONDI ST. BLUES - The Amity Affliction
-------------------------------------------------------------------------------
Tabbed by: Thomas H.
E-mail: tomjar8@gmail.com

Tuning: Standard

e|------11-11-10-10-8-----------------|
B|------------------------------------|\
G|8-7-5--------------5--7-8--8-8-7-7-7| \
D|------------------------------------|  \
A|------------------------------------|   \
E|------------------------------------|    \
                             . . . . .      ---- This riff is also played in the bridge and outro.
                                           / 
e|------11-11-10-10-8-----------------|   /
B|------------------------------------|  /
G|8-7-5---------------5-7-8--8-8-7-7-7| /
D|------------------------------------|/
A|------------------------------------|
E|------------------------------------|
                              . . . . .


e|11-10-6-3-6/8---11--10-6-8-3--------|
B|------------------------------------|\
G|------------------------------------| \
D|------------------------------------|  \
A|------------------------------------|   \
E|------------------------------------|    \
                                            ---- This riff is also played in the chorus.
e|11-10-6-3-6/8---10-10-11--8---------|    /
B|------------------------------------|   /
G|------------------------------------|  /
D|------------------------------------| /
A|------------------------------------|/
E|------------------------------------|

************************************

| /   slide up
| \   slide down
| h   hammer-on
| p   pull-off
| ~   vibrato
| +   harmonic
| x   Mute note
| b   Bend
| pb  Pre-bend
| br  Bend release
| pbr Pre-bend release
| brb Bend release bend
| .   Palm mute

************************************
Suggest correction
comments
print report bad tab
guest
You may want to rate the tab now too:
select rating
Wanna post a correction for this tab? Suggest correction