Oops, an error
Loading. Please wait.

Chasing Ghosts tab

version 2
version 2

Whole song

2,829 views 3 this week
1 commentread comment
1 2 3 4 5
2 more votes to show rating
add to favorites
×
Save as Personal and add changes to this tab that will be seen only by you. Learn more ›
×
You can save this tab as Personal to edit and correct it or add notes. All changes will be seen only by you. Learn more »
launch autoscroll
font size
0
reset
how to read this tab
guitar tuner
edit
Autoscroll
slow
fast
+/-
esc
set tempo
stop
                           THE AMITY AFFLICTION - "Chasing Ghosts"       


Band: The Amity Affliction
Song: Chasing Ghosts
Album: Chasing Ghosts
Track: 1

Tabbed by: Matthew Langston
Email: mattack_mattack@aol.com

Tuning: Drop B (B F# B E G# C#)



[0:00 - 0:29]


C#|----------------------------------------555555555555-----5555555555555--|
G#|------6666666666666----6666666666666----888888888888-----8888888888886--|
E |------9999999999999----9999999999999------------------------------------|
B |--0--0-------------0--0-------------5--5-------------5--5---------------|
F#|--0--0-------------0--0-------------5--5-------------5--5---------------|
B |--0--0-------------0--0-------------5--5-------------5--5---------------|


C#|----------------------------------------555555555555-----5555555555555--|
G#|------6666666666666----6666666666666----888888888888-----8888888888886--|
E |------9999999999999----9999999999999------------------------------------|
B |--0--0-------------0--0-------------5--5-------------5--5---------------|
F#|--0--0-------------0--0-------------5--5-------------5--5---------------|
B |--0--0-------------0--0-------------5--5-------------5--5---------------|




[0:29 - 0:48]


  | Guitar 1
C#|--------------------------------------------------------------------------------------------|
G#|--------------------------------------------------------------------------------------------|
E |--------------------------------------------------------------------------------------------|
B |--8-88888888-8-8-88-88888888-8-8-810-1010101010101010-10-10-1010-1010101010101010-10-10-10--|
F#|--8-88888888-8-8-88-88888888-8-8-810-1010101010101010-10-10-1010-1010101010101010-10-10-10--|
B |--8-88888888-8-8-88-88888888-8-8-810-1010101010101010-10-10-1010-1010101010101010-10-10-10--|
  |
C#|-----------------------------------------------------------------------------------|
G#|-----------------------------------------------------------------------------------|
E |-----------------------------------------------------------------------------------|
B |--8-88888888-8-8-88-88888888-8-8-810-1010101010101010-10-10-1010-1010101010101010--|
F#|--8-88888888-8-8-88-88888888-8-8-810-1010101010101010-10-10-1010-1010101010101010--|
B |--8-88888888-8-8-88-88888888-8-8-810-1010101010101010-10-10-1010-1010101010101010--|



  | Guitar 2
C#|--------------------------------------------------------------------------------------------|
G#|--------------------------------------------------------------------------------------------|
E |--7-777777714-14-14-1412-1212121212121210-10-10-109-999999910-10-10-109-999999910-10-10-10--|
B |--x-xxxxxxxx--x--x--x-x--x-x-x-x-x-x-x-x--x--x--x-x-xxxxxxxx--x--x--x-x-xxxxxxxx--x--x--x---|
F#|--5-555555512-12-12-1210-101010101010108--8--8--8-7-77777778--8--8--8-7-77777778--8--8--8---|
B |--------------------------------------------------------------------------------------------|
  |
C#|-------------------------------------------------------------------------------------------|
G#|-------------------------------------------------------------------------------------------|
E |--7-777777714-14-14-1412-1212121212121217-17-17-179-999999910-10-10-1012-1212121212121214--|
B |--x-xxxxxxxx--x--x--x-x--x-x-x-x-x-x-x-x--x--x--x-x-xxxxxxxx--x--x--x-x--x-x-x-x-x-x-x-x---|
F#|--5-555555512-12-12-1210-1010101010101015-15-15-157-77777778--8--8--8-10-1010101010101012--|
B |-------------------------------------------------------------------------------------------|




[0:49 - 1:12]


  | Guitar 1
C#|-------------------------------------------------------------------------------|
G#|-------------------------------------------------------------------------------|
E |-------------------------------------------------------------------------------|
B |--8-88-8-888-8-8885-55-5-555-5-5550-00-0-000-0-00010-1010-10-101010-10-101010--|
F#|--8-88-8-888-8-8885-55-5-555-5-5550-00-0-000-0-00010-1010-10-101010-10-101010--|
B |--8-88-8-888-8-8885-55-5-555-5-5550-00-0-000-0-00010-1010-10-101010-10-101010--|
  |
C#|--------------------------------------------------------------------------------------------|
G#|--------------------------------------------------------------------------------------------|
E |--------------------------------------------------------------------------------------------|
B |--8-88-8-888-8-8885-55-5-555-5-5550-00-0-000-0-00010-1010-10-101010-10-1010108~----5~-------|
F#|--8-88-8-888-8-8885-55-5-555-5-5550-00-0-000-0-00010-1010-10-101010-10-1010108~----5~----5--|
B |--8-88-8-888-8-8885-55-5-555-5-5550-00-0-000-0-00010-1010-10-101010-10-1010108~----5~----5--|



  | Guitar 2
C#|-----------8------------8------------8------------------|
G#|-------6-----6------6-----6------6-----6------6------6--|
E |--7--7---7-----7--7---7-----7--7---7-----9--7---7-9-----|
B |--------------------------------------------------------|
F#|--------------------------------------------------------|
B |--------------------------------------------------------|
  |
C#|-----------8------------8------------8---------------------------------------|
G#|-------6-----6------6-----6------6-----6------6------6--6tp-(x32)-5tp-(x32)--|
E |--7--7---7-----7--7---7-----7--7---7-----9--7---7-9----(7~)-------------------|
B |-----------------------------------------------------------------------------|
F#|-----------------------------------------------------------------------------|
B |-----------------------------------------------------------------------------|




[1:12 - 1:30]


C#|-----------------------------------------------------------------|
G#|-----------6666666-----------------------------------------------|
E |-----------9999999-----------------------------------------------|
B |-----------------------------------------------------------------|
F#|----------------------------------------------------15-----------|
B |--000-0-0-0-------000-0-0-000-0-0-0-0-0-0---13-12-0----13-10-12--|

C#|---------------------------------------------------|
G#|---------------------------------------------------|
E |---------------------------------------------------|
B |------------------------------------------1--1--1--|
F#|------------------------------------------1--1--1--|
B |--000-0-0-0-------000-0-0-000-0-0-0-0-0-0-1--1--1--|

C#|-----------------------------------------------------------------|
G#|--------------6--------------------------------------------------|
E |--------------9--------------------------------------------------|
B |-----------------------------------------------------------------|
F#|----------------------------------------------------15-----------|
B |--000-0-0-0-------000-0-0-000-0-0-0-0-0-0---13-12-0----13-10-12--|

C#|-----------------------------------------------|
G#|-----------------------------------------------|
E |-----------------------------------------------|
B |------------------------------------------1~---|
F#|------------------------------------------1~---|
B |--000-0-0-0-------000-0-0-000-0-0-0-0-0-0-1~---|




[1:30 - 1:35]


  | Guitar 1
C#|------------------------|
G#|------------------------|
E |------------------------|
B |--8~-------5~-------5---|
F#|--8~-------5~-------5---|
B |--8~-------5~-------5---|



  | Guitar 2
C#|---------------------------------|
G#|--6tp-(x32)-----5tp-(x32)--------|
E |---------------------------------|
B |---------------------------------|
F#|---------------------------------|
B |---------------------------------|




[1:35 - 1:54]


C#|----------------------------------------555555555555-----5555555555555--|
G#|------6666666666666----6666666666666----888888888888-----8888888888886--|
E |------9999999999999----9999999999999------------------------------------|
B |--0--0-------------0--0-------------5--5-------------5--5---------------|
F#|--0--0-------------0--0-------------5--5-------------5--5---------------|
B |--0--0-------------0--0-------------5--5-------------5--5---------------|


C#|----------------------------------------555555555555-----5555555555555--|
G#|------6666666666666----6666666666666----888888888888-----8888888888886--|
E |------9999999999999----9999999999999------------------------------------|
B |--0--0-------------0--0-------------5--5-------------5--5---------------|
F#|--0--0-------------0--0-------------5--5-------------5--5---------------|
B |--0--0-------------0--0-------------5--5-------------5--5---------------|




[1:54 - 2:12]


  | Guitar 1
C#|--------------------------------------------------------------------------------------------|
G#|--------------------------------------------------------------------------------------------|
E |--------------------------------------------------------------------------------------------|
B |--8-88888888-8-8-88-88888888-8-8-810-1010101010101010-10-10-1010-1010101010101010-10-10-10--|
F#|--8-88888888-8-8-88-88888888-8-8-810-1010101010101010-10-10-1010-1010101010101010-10-10-10--|
B |--8-88888888-8-8-88-88888888-8-8-810-1010101010101010-10-10-1010-1010101010101010-10-10-10--|
  |
C#|-----------------------------------------------------------------------------------|
G#|-----------------------------------------------------------------------------------|
E |-----------------------------------------------------------------------------------|
B |--8-88888888-8-8-88-88888888-8-8-810-1010101010101010-10-10-1010-1010101010101010--|
F#|--8-88888888-8-8-88-88888888-8-8-810-1010101010101010-10-10-1010-1010101010101010--|
B |--8-88888888-8-8-88-88888888-8-8-810-1010101010101010-10-10-1010-1010101010101010--|



  | Guitar 2
C#|--------------------------------------------------------------------------------------------|
G#|--------------------------------------------------------------------------------------------|
E |--7-777777714-14-14-1412-1212121212121210-10-10-109-999999910-10-10-109-999999910-10-10-10--|
B |--x-xxxxxxxx--x--x--x-x--x-x-x-x-x-x-x-x--x--x--x-x-xxxxxxxx--x--x--x-x-xxxxxxxx--x--x--x---|
F#|--5-555555512-12-12-1210-101010101010108--8--8--8-7-77777778--8--8--8-7-77777778--8--8--8---|
B |--------------------------------------------------------------------------------------------|
  |
C#|-------------------------------------------------------------------------------------------|
G#|-------------------------------------------------------------------------------------------|
E |--7-777777714-14-14-1412-1212121212121217-17-17-179-999999910-10-10-1012-1212121212121214--|
B |--x-xxxxxxxx--x--x--x-x--x-x-x-x-x-x-x-x--x--x--x-x-xxxxxxxx--x--x--x-x--x-x-x-x-x-x-x-x---|
F#|--5-555555512-12-12-1210-1010101010101015-15-15-157-77777778--8--8--8-10-1010101010101012--|
B |-------------------------------------------------------------------------------------------|




[2:13 - 2:45]


  | Guitar 1
C#|-------------------------------------------------------------------------------|
G#|-------------------------------------------------------------------------------|
E |-------------------------------------------------------------------------------|
B |--8-88-8-888-8-8885-55-5-555-5-5550-00-0-000-0-00010-1010-10-101010-10-101010--|
F#|--8-88-8-888-8-8885-55-5-555-5-5550-00-0-000-0-00010-1010-10-101010-10-101010--|
B |--8-88-8-888-8-8885-55-5-555-5-5550-00-0-000-0-00010-1010-10-101010-10-101010--|
  |
C#|-------------------------------------------------------------------------------|
G#|-------------------------------------------------------------------------------|
E |-------------------------------------------------------------------------------|
B |--8-88-8-888-8-8885-55-5-555-5-5550-00-0-000-0-00010-1010-10-101010-10-101010--|
F#|--8-88-8-888-8-8885-55-5-555-5-5550-00-0-000-0-00010-1010-10-101010-10-101010--|
B |--8-88-8-888-8-8885-55-5-555-5-5550-00-0-000-0-00010-1010-10-101010-10-101010--|
  |
C#|-----------------------------------------------------------------|
G#|-----------------------------------------------------------------|
E |-----------------------------------------------------------------|
B |--8~-----5~-----0~-----10~-----8-888888888888885-55555555555555--|
F#|--8~-----5~-----0~-----10~-----8-888888888888885-55555555555555--|
B |--8~-----5~-----0~-----10~-----8-888888888888885-55555555555555--|
  |                                 ..............  ..............



  | Guitar 2
C#|-----------8------------8------------8------------------|
G#|-------6-----6------6-----6------6-----6------6------6--|
E |--7--7---7-----7--7---7-----7--7---7-----9--7---7-9-----|
B |--------------------------------------------------------|
F#|--------------------------------------------------------|
B |--------------------------------------------------------|
  |
C#|-----------8------------8------------8------------------|
G#|-------6-----6------6-----6------6-----6------6------6--|
E |--7--7---7-----7--7---7-----7--7---7-----9--7---7-9-----|
B |--------------------------------------------------------|
F#|--------------------------------------------------------|
B |--------------------------------------------------------|
  |
C#|-------------------------------------------------------------------------|
G#|--6tp-(x32)---5tp-(x32)---------------------------6tp-(x32)---8tp-(x32)--|
E |--------------------------5tp-(x32)---7tp-(x32)--------------------------|
B |-------------------------------------------------------------------------|
F#|-------------------------------------------------------------------------|
B |-------------------------------------------------------------------------|




[2:46 - 2:54]

C#|---------------8~---|
G#|--6~----------------|
E |----------7~--------|
B |--------------------|
F#|--------------------|
B |--------------------|




[2:55 - 3:32]

  | Guitar 1
C#|-------------------------------------------------------------------|
G#|-------------------------------------------------------------------|
E |-------------------------------------------------------------------|
B |-------------------------------------------------------------------|
F#|-------------------------------------------------------------------|
B |--000-0-0-0-------000-0-0-000-0-0-0-0-0-0-10-10-10-10-10-10-10-10--|


C#|-----------------------------------------------------------|
G#|-----------------------------------------------------------|
E |-----------------------------------------------------------|
B |-----------------------------------------------------------|
F#|-----------------------------------------------------------|
B |--888-8-8-8-------888-8-8-888-8-8-8-8-8-8-5-5-5-5-5-5-5-5--|


C#|-----------------------------------------------------------------------|
G#|-----------------------------------------------------------------------|
E |-----------------------------------------------------------------------|
B |-----------------------------------------------------------------------|
F#|-----------------------------------------------------------------------|
B |--000-0-0-0-03-02-03--000-0-0-000-0-0-0-0-0-0-10-10-10-10-10-10-10-10--|
               .  .  .

C#|-----------------------------------------------------------------|
G#|-----------------------------------------------------------------|
E |-------------14--12--9-------------------------------------------|
B |------------0---0---0--------------------------------------------|
F#|-----------------------------------------------------------------|
B |--888-8-8-8-------------888-8-8-888-8-8-8-8-8-8-5-5-5-5-5-5-5-5--|
               .   .   .

C#|-----------------------------------------------------------------------|
G#|-----------------------------------------------------------------------|
E |-----------------------------------------------------------------------|
B |-----------------------------------------------------------------------|
F#|-----------------------------------------------------------------------|
B |--000-0-0-0~-0~-0~-0~-000-0-0-000-0-0-0-0-0-0-10-10-10-10-10-10-10-10--|


C#|---------------------------------------------------------------|
G#|---------------------------------------------------------------|
E |---------------------------------------------------------------|
B |---------------------------------------------------------------|
F#|---------------------------------------------------------------|
B |--888-8-8-8~-8~-8~-8~-888-8-8-888-8-8-8-8-8-8-5-5-5-5-5-5-5-5--|
  

C#|---------------------------------------------------------------------------|
G#|---------------------------------------------------------------------------|
E |---------------------------------------------------------------------------|
B |---------------------------------------------------------------------------|
F#|---------------------------------------------------------------------------|
B |--000-0-0-0-0-0-0-0-0-0-0-000-0-0-000-0-0-0-0-0-0-10-10-10-10-10-10-10-10--|


C#|----------------------------------------------------------------------|
G#|----------------------------------------------------------------------|
E |--------------------------------------------------7---5---10---9-(7)--|
B |----------------------------------------------------0---0----0--------|
F#|----------------------------------------------------------------------|
B |--888-8-8-8-8-8-8-8-8-8-8-888-8-8-888-8-8-8-8-8-8---------------------|
                                                       .   .    .



[3:33 - 4:22]


  | Guitar 1
C#|-------------------------------------------------------------------------------|
G#|-------------------------------------------------------------------------------|
E |-------------------------------------------------------------------------------|
B |----------------------------------0-00-0-000-0-00010-1010-10-101010-10-101010--|
F#|----------------------------------0-00-0-000-0-00010-1010-10-101010-10-101010--|
B |----------------------------------0-00-0-000-0-00010-1010-10-101010-10-101010--|
  |
C#|-------------------------------------------------------------------------------|
G#|-------------------------------------------------------------------------------|
E |-------------------------------------------------------------------------------|
B |--8-88-8-888-8-8885-55-5-555-5-5550-00-0-000-0-00010-1010-10-101010-10-101010--|
F#|--8-88-8-888-8-8885-55-5-555-5-5550-00-0-000-0-00010-1010-10-101010-10-101010--|
B |--8-88-8-888-8-8885-55-5-555-5-5550-00-0-000-0-00010-1010-10-101010-10-101010--|
  |
C#|------------------------------------------------------------------------------------|
G#|------------------------------------------------------------------------------------|
E |------------------------------------------------------------------------------------|
B |--88888888888888885555555555555555000000000000000010101010101010101010101010101010--|
F#|--88888888888888885555555555555555000000000000000010101010101010101010101010101010--|
B |--88888888888888885555555555555555000000000000000010101010101010101010101010101010--|
  |
C#|------------------------------------------------------------------------------------|
G#|------------------------------------------------------------------------------------|
E |------------------------------------------------------------------------------------|
B |--88888888888888885555555555555555000000000000000010101010101010101010101010101010--|
F#|--88888888888888885555555555555555000000000000000010101010101010101010101010101010--|
B |--88888888888888885555555555555555000000000000000010101010101010101010101010101010--|
  |
C#|--------|
G#|--------|
E |--------|
B |---8~---|
F#|---8~---|
B |---8~---|



  | Guitar 2
C#|-----------8------------8------------8------------------|
G#|-------6-----6------6-----6------6-----6------6------6--|
E |--7--7---7-----7--7---7-----7--7---7-----9--7---7-9-----|
B |--------------------------------------------------------|
F#|--------------------------------------------------------|
B |--------------------------------------------------------|
  |
C#|-----------8------------8------------8------------------|
G#|-------6-----6------6-----6------6-----6------6------6--|
E |--7--7---7-----7--7---7-----7--7---7-----9--7---7-9-----|
B |--------------------------------------------------------|
F#|--------------------------------------------------------|
B |--------------------------------------------------------|
  |
C#|-----------8------------8------------8------------------|
G#|-------6-----6------6-----6------6-----6------6------6--|
E |--7--7---7-----7--7---7-----7--7---7-----9--7---7-9-----|
B |--------------------------------------------------------|
F#|--------------------------------------------------------|
B |--------------------------------------------------------|
  |
C#|-----------8------------8------------8------------------|
G#|-------6-----6------6-----6------6-----6------6------6--|
E |--7--7---7-----7--7---7-----7--7---7-----9--7---7-9-----|
B |--------------------------------------------------------|
F#|--------------------------------------------------------|
B |--------------------------------------------------------|
  |
C#|---8~---|
G#|---6~---|
E |---7~---|
B |--------|
F#|--------|
B |--------|




[END]




************************************

| x   mute string
| tp  tremelo pick
| ~   held note
| .   palm mute

************************************

            
            
Suggest correction
Creating personal tab
Creating personal tab
You can edit any tab online and save it as your Personal.

You can edit, replace or remove any tab part or add personal notes – all changes will be seen only by you.

Personal tabs can be accessed anytime from any device, even offline.
Learn more »
Give kudos to tab author, rate the tab!
1 2 3 4 5
comments
print report bad tab
1 comment total.
+1 reply
KidGT 31 Oct 16, 2014 02:45 PM

Solid +1

Only change is if you listen to the early breakdown it sounds like two quick 4-counts.

It sounds closer like this:

C#|---------------------------|
G#|---------------------------|
E |---------------------------|
B |---------------------------|
F#|--------------15-----------|
B |--13-12-10-12----13-10-12--|

guest
You may want to rate the tab now too:
select rating
Wanna post a correction for this tab? Suggest correction