Oops, an error
Loading. Please wait.

Do You Party Tab

1,777 views 3 this week
no commentswrite comment
1 2 3 4 5
please rate
add to favorites
launch autoscroll
font size
0
reset
how to read this tab
guitar tuner
Autoscroll
slow
fast
+/-
esc
set tempo
stop
Help us to improve Ultimate-Guitar.com Take our survey!
×
Difficulty
Tuning
intermediate
C# G# C# F# A# D#
Do you party! – The Amity Affliction

Into 
D#|---------------------------------------------------------------------|
A#|---------------------------------------------------------------------|
F#|---------------------------------------------------------------------|
C#|------5---12---15-------------------------------15---17--------------|
G#|------5---10---13-------------------------------13---15--------------|
C#|------5---10---13----55--77--88888---10101010---13---15--------------| x 2
		
	(find you own strumming pattern, it’s pretty easy)
Riff 1 

D#|------------------------------------------------------------------------|
A#|------------------------------10h11p10----------------------------------|
F#|-----------------------10-12------------12 (x3)-------------------------|
C#|-------7-8----8h10/12---------------------------------------------------|
G#|--8-10-----10-----------------------------------------------------------|
C#|------------------------------------------------------------------------|

D#|------------------------------------------------------------------------|
A#|-------------------------11-10h11p10------------------------------------|
F#|-------------------------------------12p10------------------------------|
C#|--------------------------------------------12p10-10p12-12--------------|
G#|------------------------------------------------------------------------|
C#|------------------------------------------------------------------------|

Riff 2 

D#|---------------------------------------------------------------------|
A#|---------------------------------------------------------------------|
F#|-------------------------5---5---5/7-7-7-----------------------------|
C#|------8---7----5-------8---8---8-------------------------------------|
G#|----5---5----8---5--6------------------------------------------------|
C#|--5------------------------------------------------------------------|

(do till chords come back in) 

D#|---------------------------------------------------------------------|
A#|---------------------------------------------------------------------|
F#|---------------------------------------------------------------------|
C#|------5---12---15-------------------------------15---17--------------|
G#|------5---10---13-------------------------------13---15--------------|
C#|------5---10---13----55--77--88888---10101010---13---15--------------| x 2

PARTY! 

Riff 1 AGAIN

D#|----------------------------------------------------------------------------------|
A#|------------------------------10h11p10-----------11-10h11p10----------------------|
F#|-----------------------10-12------------12 (x3)--------------12p10----------------|
C#|-------7-8----8h10/12----------------------------------------------12p10-10p12-12-|
G#|--8-10-----10---------------------------------------------------------------------|
C#|----------------------------------------------------------------------------------|

RIFF 3 

D#|---------------------------------------------------------------------|
A#|---------------------------------------------------------------------|
F#|------------101010--------101010-------555-----5/777-----------------|
C#|------555----------555-----------111-------111-----------------------|
G#|------555---8888---555----888----111---333-111-3/555-----------------|
C#|------555----------555-----------111-------111-----------------------|

D#|---------------------------------------------------------------------|
A#|---------------------------------------------------------------------|
F#|------------101010--------101010-------555-----5/777-----------------|
C#|------555----------555-----------111-------111-----------------------|
G#|------555---8888---555----888----111---333-111-3/555-----------------|
C#|------555----------555-----------111-------111-----------------------|

D#|---------------------------------------------------------------------|
A#|---------------------------------------------------------------------|
F#|------------101010--------10/121212----------555-----5/777-----------|
C#|------555----------555-----------------111---------------------------|
G#|------555---8888---555----8/101010-----111---333-----3/555-----------|
C#|------555----------555-----------------111---------------------------|





D#|------------------------------------------------------------------------|
A#|------------------------------------------------------------------------|
F#|------------101010--------10/121212-------------------------------------|
C#|------555----------555-------------------8888888----101010101010--------|
G#|------555---8888---555----8/101010-------8888888----101010101010--------|
C#|------555----------555-------------------8888888----101010101010--------|

D#|---------------------------------------------------------------------|
A#|---------------------------------------------------------------------|
F#|---------------------------------------------------------------------|
C#|------5---12---15-------------------------------15---17--------------|
G#|------5---10---13-------------------------------13---15--------------|
C#|------5---10---13----55--77--88888---10101010---13---15--------------|(x3)

Last riff 

D#|---------------------------------------------------------------------|
A#|---------------------------------------------------------------------|
F#|---------101010101010-------121212121212-----------------------------|
C#|------555----------------111------------------(x2)-------------------|
G#|------555--888888888888--111--101010101010---------------------------|
C#|------555----------------111-----------------------------------------|

D#|---------------------------------------------------------------------|
A#|---------------------------------------------------------------------|
F#|---------1010101010/121212--------151515/141414----------------------|
C#|------555---------------------111------------------------------------|
G#|------555—88888888888/101010--111-131313/121212----------------------|
C#|------555---------------------111------------------------------------|

D#|---------------------------------------------------------------------|
A#|---------------------------------------------------------------------|
F#|---------1010101010/121212-------------------------------------------|
C#|------555---------------------888--101010----555---------------------|
G#|------555—88888888888/101010--888--101010----555---------------------|
C#|------555---------------------888--101010----555---------------------|






 







Suggest correction
Give kudos to tab author, rate the tab!
1 2 3 4 5
comments
print report bad tab
guest
You may want to rate the tab now too:
select rating
Please do not post tabs as comments. Select "correction" instead!